30 Seconds To Mars - Modern Myth Chords & Tabs

 

Modern Myth Chords & Tabs

30 Seconds To Mars Chords & Tabs

Version: 2 Type: Tab 0 ratings
1 star 2 stars 3 stars 4 stars 5 stars
comments

Modern Myth Tab

   
----------------------------------------------------------------------------
		     Modern Myth - 30 Seconds to Mars
----------------------------------------------------------------------------
Tabbed by: Toren
Email: toren-2@cox.net

Tuning: Drop D

This song is actually performed on two guitars playing simultaneously.  You
can tell because in the intro/first verse/chorus, you can hear one guitar
playing the chords and the other constantly strumming.  Then after the
bridge plays, the second guitar is playing the same chords as the first.
This is arranged for only one guitar.

--Intro
e|-----------------------------------------------------|
B|-----------------------------------------------------|
G|-7---7---7---3---3---3-------------------------------|
D|-7---7---7---3---3---3---5---5---5---5---5---5---5---|
A|-5---5---5---1---1---1---5---5---5---5---5---5---5---|
D|-0---0---0---------------5---5---5---5---5---5---5---|

e|-----------------------------------------------------|
B|-----------------------------------------------------|
G|-7---7---7---3---3---3---5---5---5---5---5---5---5---|
D|-7---7---7---3---3---3---5---5---5---5---5---5---5---|
A|-5---5---5---1---1---1---3---3---3---3---3---3---3---|
D|-0---0---0-------------------------------------------|

--Verse
  Did we create...
e|-----------------------------------------------------|
B|-----------------------------------------------------|
G|-7---7---7---3---3---3-------------------------------|
D|-7---7---7---3---3---3---5---5---5---5---5---5---5---|
A|-5---5---5---1---1---1---5---5---5---5---5---5---5---|
D|-0---0---0---------------5---5---5---5---5---5---5---|
  What happened then...
e|-----------------------------------------------------|
B|-----------------------------------------------------|
G|-7---7---7---3---3---3---5---5---5---5---5---5---5---|
D|-7---7---7---3---3---3---5---5---5---5---5---5---5---|
A|-5---5---5---1---1---1---3---3---3---3---3---3---3---|
D|-0---0---0-------------------------------------------|

--Chorus
  A secret is out...
e|-----------------------------------------------------|
B|-----------------------------------------------------|
G|-3---3---3---3---3---3---5---5---5---5---5---5---5---|
D|-3---3---3---3---3---3---5---5---5---5---5---5---5---|
A|-1---1---1---1---1---1---3---3---3---3---3---3---3---|
D|-----------------------------------------------------|
  A secret is out...
e|-----------------------------------------------------|
B|-----------------------------------------------------|
G|-3---3---3---3---3---3---5---5---5---5---5---5---5---|
D|-3---3---3---3---3---3---5---5---5---5---5---5---5---|
A|-1---1---1---1---1---1---3---3---3---3---3---3---3---|
D|-----------------------------------------------------|

--Four beats on guitar

--Bridge
e|-----------------------------------------------------|
B|-----------------------------------------------------|
G|-----------------------------------------------------|
D|-12\10-10-10\8-8-8\7-8\7-7-7\5-5-5\3-5\7-7-7-5\7-7-7-|
A|-----------------------------------------------------|
D|-----------------------------------------------------|
[ Tab from: http://www.guitartabs.cc/tabs/0-9/30_seconds_to_mars/modern_myth_tab_ver_2.html ]
e|-----------------------------------------------------|
B|-----------------------------------------------------|
G|---------------------------------3\5-5-5-3\5-5-5-----|
D|-12\10-10-10\8-8-8\7-8\7-7-7\5-5---------------------|
A|-----------------------------------------------------|
D|-----------------------------------------------------|


--Verse
  To buy the truth...
e|-----------------------------------------------------|
B|-----------------------------------------------------|
G|-7---7---7---3---3---3-------------------------------|
D|-7---7---7---3---3---3---5---5---5---5---5---5---5---|
A|-5---5---5---1---1---1---5---5---5---5---5---5---5---|
D|-0---0---0---------------5---5---5---5---5---5---5---|
  So don't forget...
e|-----------------------------------------------------|
B|-----------------------------------------------------|
G|-7---7---7---3---3---3---5---5---5---5---5---5---5---|
D|-7---7---7---3---3---3---5---5---5---5---5---5---5---|
A|-5---5---5---1---1---1---3---3---3---3---3---3---3---|
D|-0---0---0-------------------------------------------|

--Chorus
  A secret is out...
e|-----------------------------------------------------|
B|-----------------------------------------------------|
G|-3---3---3---3---3---3---5---5---5---5---5---5---5---|
D|-3---3---3---3---3---3---5---5---5---5---5---5---5---|
A|-1---1---1---1---1---1---3---3---3---3---3---3---3---|
D|-----------------------------------------------------|
  A secret is out...
e|-----------------------------------------------------|
B|-----------------------------------------------------|
G|-3---3---3---3---3---3---5---5---5---5---5---5---5---|
D|-3---3---3---3---3---3---5---5---5---5---5---5---5---|
A|-1---1---1---1---1---1---3---3---3---3---3---3---3---|
D|-----------------------------------------------------|
  A secret is out...
e|-----------------------------------------------------|
B|-----------------------------------------------------|
G|-3---3---3---3---3---3---5---5---5---5---5---5---5---|
D|-3---3---3---3---3---3---5---5---5---5---5---5---5---|
A|-1---1---1---1---1---1---3---3---3---3---3---3---3---|
D|-----------------------------------------------------|
  A secret is out...
e|-----------------------------------------------------|
B|-----------------------------------------------------|
G|-3---3---3---3---3---3---5---5---5---5---5---5---5---|
D|-3---3---3---3---3---3---5---5---5---5---5---5---5---|
A|-1---1---1---1---1---1---3---3---3---3---3---3---3---|
D|-----------------------------------------------------|

--Outro (x16)
  Goodbye...
e|--------------|
B|--------------|
G|-10---9---5---|
D|--8-----------|
A|--8---7---3---|
D|--------------|

The outro consists of both the above and the chorus.  It is up to you, if
you are playing this alone, which you would like to use.  If it is 2
guitarists, one plays the above outro and the other plays the chorus.  It's
a rather simple song and is identifiable by those who've heard the album.
Enjoy!

| /  slide up
| \  slide down
| h  hammer-on
| p  pull-off
| ~  vibrato
| +  harmonic
| x  Mute note
============================================================================
Comments