30 Seconds To Mars - Kill Acoustic Chords & Tabs

 

Kill Acoustic Chords & Tabs

30 Seconds To Mars Chords & Tabs

Version: 2 Type: Tab

Kill Acoustic Tab

   
30 Seconds to Mars
The Kill ( Acoustic Version ) -

   C                       D                             E
e|--------------------------------------------------------------------|
B|----0--------------------0-----------------------------0------------|
G|-5--5--------------------7-----------------------------9------------|
D|-5--5--------------------7-----------------------------9------------|
A|-3--3--------------------5-----------------------------7------------|
E|-0------------------------------------------------------------------|
       What if I wanted to break     Laugh it all off in your face

                B
e|------------------------|
B|--------------0---------|
G|--------------4---------|
D|--------------4---------|
A|--------------2---------|
E|------------------------|
  What would you do?

e|--------------------------------------------------------------------|
B|-0-----------------------0-----------------------------0------------|
G|-5-----------------------7-----------------------------9------------|
D|-5-----------------------7-----------------------------9------------|
A|-3-----------------------5-----------------------------7------------|
E|--------------------------------------------------------------------|
      What if I fell to the floor   Couldn’t take this any…more

e|------------------------|
B|--------------0---------|
G|--------------4---------|
D|--------------4---------|
A|--------------2---------|
E|------------------------|
  What would you do?

e|--------------------------------------------------------------------|
B|-0-----------------------0-----------------------------0------------|
G|-5-----------------------7-----------------------------9------------|
D|-5-----------------------7-----------------------------9------------|
A|-3-----------------------5-----------------------------7------------|
E|--------------------------------------------------------------------|
   Come     Break     me   down      Bury me, Bury me    I am finished

e|------------------------|
B|--------------0---------|
G|--------------4---------|
D|--------------4---------|
A|--------------2---------|
E|------------------------|
           With you

e|--------------------------------------------------------------------|
B|-0-----------------------0-----------------------------0------------|
G|-5-----------------------7-----------------------------9------------|
D|-5-----------------------7-----------------------------9------------|
A|-3-----------------------5-----------------------------7------------|
E|--------------------------------------------------------------------|
       What if I wanted to fight   Beg for the rest of my life

e|------------------------|
B|--------------0---------|
G|--------------4---------|
D|--------------4---------|
A|--------------2---------|
E|------------------------|
  What would you do?
[ Tab from: http://www.guitartabs.cc/tabs/0-9/30_seconds_to_mars/kill_acoustic_tab_ver_2.html ]
e|--------------------------------------------------------------------|
B|-0---------------------------0------------------------------0-------|
G|-5---------------------------7------------------------------9-------|
D|-5---------------------------7------------------------------9-------|
A|-3---------------------------5------------------------------7-------|
E|--------------------------------------------------------------------|
        You say you wanted more     What are you waiting for  I'm not

e|------------------------|
B|--------------0---------|
G|--------------4---------|
D|--------------4---------|
A|--------------2---------|
E|------------------------|
    running from you


e|--------------------------------------------------------------------|
B|-0-----------------------0-----------------------------0------------|
G|-5-----------------------7-----------------------------9------------|
D|-5-----------------------7-----------------------------9------------|
A|-3-----------------------5-----------------------------7------------|
E|--------------------------------------------------------------------|
   Come     Break     me   down      Bury me, Bury me    I am finished

e|------------------------|
B|--------------0---------|
G|--------------4---------|
D|--------------4---------|
A|--------------2---------|
E|------------------------|
           With you

e|--------------------------------------------------------------------|
B|-0---------------0-------------------------------------0------------|
G|-5---------------7-------------------------------------9------------|
D|-5---------------7-------------------------------------9------------|
A|-3---------------5-------------------------------------7------------|
E|--------------------------------------------------------------------|
   Look   in   my  eyes   You’re killing me, killing me  All I wanted

e|------------------------|
B|--------------0---------|
G|--------------4---------|
D|--------------4---------|
A|--------------2---------|
E|------------------------|
            was you

Bridge
e|----------------------------------|
B|----------------------------------|
G|----------------------------------|
D|--7lr---------------9lr-----------|
A|--7lr---------------9lr-----------|
E|--5lr---------------7lr-----------|
   I've tried to be someone else
e|------------------------------------------|
B|-----0-------0--------0--------0----------|
G|-----9-------7--------5--------7----------|
D|-----9-------7--------5--------7----------|
A|-----7-------5--------3--------5----------|
E|------------------------------------------|
   But nothing seems to change I now know
e|-----------------------------------|
B|-----------------------------------|
G|-----------------------------------|
D|--9--------11------12------14------|
A|--x--------x-------x-------x-------|
E|--7--------9-------10------12------|
   This  is  who  i  really  am