30 Seconds To Mars - From Yesterday Chords & Tabs

 

From Yesterday Chords & Tabs

30 Seconds To Mars Chords & Tabs

Version: 1 Type: Chords 0 ratings
1 star 2 stars 3 stars 4 stars 5 stars
comments

From Yesterday Chords

Artist: 30 Seconds To Mars
Song: From Yesterday
Tabbed by: KirSy_@hotmail.com


Almost for sure that this is not the tune that 30 Secs use, but it's what I use.
"Translate" it. ;)


intro/verse

guitar1
Eb:-------------------------------|
Bb:-------------------------------|
Gb:-------------------------------|
Db:-------------------------------|
Ab:---9-8---9-8---9-8---9-8---9-8-|
Eb:-9-----9-----9-----9-----9-----|

guitar2
Eb:--------------------|
Bb:--------------------|
Gb:--9-----------------|
Db:--9--6--------------|
Ab:--7--6--------------|
Eb:-----4--------------|
[ Tab from: http://www.guitartabs.cc/tabs/0-9/30_seconds_to_mars/from_yesterday_crd.html ]
Chorus
Eb:-----------------------|
Bb:-----------------------|
Gb:-------------9---------|
Db:-9---4---6---9---------|
Ab:-9---4---6---7---------|
Eb:-7---2---4-------------|

Eb:------------------------|
Bb:------------------------|
Gb:------------------------|
Db:-9---4---9---9---9------|
Ab:-9---4---9---9---9------|
Eb:-7---2---7---7---7------|

Bridge							x3
Eb:----------------------------------------------------|----------------------------------|
Bb:----------------------------------------------------|----------------------------------|
Gb:-------8-8/9-9--8-8-8/9-9-----------------------|------8-8-9-9-8-8-8/9-9---------------|
Db:-6-6--8-8/9-9--8-8-8/9-9--9-9---9--9---8--8-|-6-6-8-8-9-9-8-8-8/9-9-9-9-11-11----------|
Ab:-6-6--6-6/7-7--6-6-6/7-7--9-9---9--9---8--8-|-6-6-6-6/7-7-6-6-6/7-7-9-9-11-11----------|
Eb:-4-4--------------------------7-7---7--7---6--6-|-4-4-----------------------7-7--9--9--|
Comments