30 Seconds To Mars - A Beautiful Lie Chords & Tabs

 

A Beautiful Lie Chords & Tabs

30 Seconds To Mars Chords & Tabs

Version: 1 Type: Tab 0 ratings
1 star 2 stars 3 stars 4 stars 5 stars
comments

A Beautiful Lie Tab

Artist: 30 Seconds To Mars
Song: A Beautiful Lie
Tabbed by: KirSy_@hotmail.com


Almost for sure that this is not the tune that 30 Secs use, but it's what I use.
"Translate" it. ;)

[ Tab from: http://www.guitartabs.cc/tabs/0-9/30_seconds_to_mars/a_beautiful_lie_tab.html ]
Intro/bridge/outro
Eb:---9~--8~---4~--|
Bb:----------------|
Gb:----------------|
Db:----------------|
Ab:----------------|
Eb:----------------|

Verse/Chorus:
(All the song goes around this 4 chords)
Eb:---------------------|
Bb:---------------------|
Gb:----------8---10-----|
Db:--8---4---8---10-----|
Ab:--8---4---6---8------|
Eb:--6---2--------------|
Comments