2raumwohnung - Wir Trafen Uns In Einem Garten Chords & Tabs

 

Wir Trafen Uns In Einem Garten Chords & Tabs

2raumwohnung Chords & Tabs

Version: 1 Type: Bass Tab 0 ratings
1 star 2 stars 3 stars 4 stars 5 stars
comments

Wir Trafen Uns In Einem Garten Bass Tab

Artist: 2-raumwohnung
Song: wir trafen uns in einem garten
Album: kommt zusa,,em
http://www.2-raumwohnung.de
Tabber ElExar@freenet.de
Tuning: EADG
Basstab

Intro, 

E|-1--0---------------------------------------------------------------------|
A|--------------------------------------------------------------------------|  
D|--------------------------------------------------------------------------|
G|--------------------------------------------------------------------------|

Verse
[ Tab from: http://www.guitartabs.cc/tabs/0-9/2raumwohnung/wir_trafen_uns_in_einem_garten_btab.html ]
E|---5-1-0----5-1-0----5-1-0---1-0-0----------------------------------------|
A|-3--------3--------3------------------------------------------------------| 
D|--------------------------------------------------------------------------|
G|--------------------------------------------------------------------------|


Ref

E|-5-1-3----5-1-0-----------------------------------------------------------|
A|-------3------------------------------------------------------------------|  
D|--------------------------------------------------------------------------|
G|--------------------------------------------------------------------------|
Comments