2ne1 - Ugly Chords & Tabs

 

Ugly Chords & Tabs

2ne1 Chords & Tabs

Version: 1 Type: Bass Tab 0 ratings
1 star 2 stars 3 stars 4 stars 5 stars
comments

Ugly Bass Tab

Tabbed by: SourChicken
E-mail: sourchicken@gmail.com

0:15
G|---------------------------|
D|---------------------------|
A|--------6~~~ /8~~~ 8\4~ 6--|
E|--4~~~ --------------------|

0:32
G|------------------------8------------------------------|
D|--------/8-65---------/8-8-----------3/5p3-------6-----|
A|------6---------3-3/6-----6\-/8----3-------3-4-/8-8-6--|
E|--4~ ---------4------------------4---------------------|

G|------------------------8------------------------------|
D|--------/8-65---------/8-8-----------3/5p3-------6-----|
A|------6---------3-3/6-----6\-/8----3-------3-4-/8-8-6--|
E|--4~ ---------4------------------4---------------------|

G|------------------------8--------------------------------|
D|--------/8-65---------/8-8-----------3/5p3-------6-------|
A|------6---------3-3/6-----6\-/8----3-------3-4-/8-8-666--|
E|--4~ ---------4------------------4-----------------------|

1:17
G|--------------------------------------------------------------------------|
D|--------------------------------------------------------------------------|
A|------------------3-666666666666666-7-888888888888888-6-4444444-66666666--|
E|--444444444444444---------------------------------------------------------|

G|---------------------------------------------------------------------|
D|---------------------------------------------------------------------|
A|------------------3-666666666666666-7-888888888888888-6-4444444-6~ --|
E|--444444444444444----------------------------------------------------|

1:47
G|------------------------8------------------------------|
D|--------/8-65---------/8-8-----------3/5p3-------6-----|
A|------6---------3-3/6-----6\-/8----3-------3-4-/8-8-6--|
E|--4~ ---------4------------------4---------------------|
[ Tab from: http://www.guitartabs.cc/tabs/0-9/2ne1/ugly_btab.html ]
G|------------------------8------------------------------|
D|--------/8-65---------/8-8-----------3/5p3-------6-----|
A|------6---------3-3/6-----6\-/8----3-------3-4-/8-8-6--|
E|--4~ ---------4------------------4---------------------|

G|------------------------8--------------------------------|
D|--------/8-65---------/8-8-----------3/5p3-------6-------|
A|------6---------3-3/6-----6\-/8----3-------3-4-/8-8-666--|
E|--4~ ---------4------------------4-----------------------|

2:32
G|--------------------------------------------------------------------------|
D|--------------------------------------------------------------------------|
A|------------------3-666666666666666-7-888888888888888-6-4444444-66666666--|
E|--444444444444444---------------------------------------------------------|

G|---------------------------------------------------------------------|
D|---------------------------------------------------------------------|
A|------------------3-666666666666666-7-888888888888888-6-4444444-6~ --|
E|--444444444444444----------------------------------------------------|

Play this one quietly:

3:17
G|---------------------------------------------------------------------|
D|---------------------------------------------------------------------|
A|------------------3-666666666666666-7-888888888888888-6-4444444-6~ --|
E|--444444444444444----------------------------------------------------|

And then back to normal:

G|--------------------------------------------------------------------------|
D|--------------------------------------------------------------------------|
A|------------------3-666666666666666-7-888888888888888-6-4444444-66666666--|
E|--444444444444444---------------------------------------------------------|

G|---------------------------------------------------------------------|
D|---------------------------------------------------------------------|
A|------------------3-666666666666666-7-888888888888888-6-4444444-6~ --|
E|--444444444444444----------------------------------------------------|
Comments