2ne1 - Lonely Chords & Tabs

 

Lonely Chords & Tabs

2ne1 Chords & Tabs

Version: 2 Type: Tab 0 ratings
1 star 2 stars 3 stars 4 stars 5 stars
comments

Lonely Tab

   
2NE1 - LONELY

Verse: (pluck)

C - E7 - Am - G

Cadd9 - E7 - Am - G (3x)



  C                           E or E7
e:-------------|-------------|-------------|-------------|
B:-1--------1--|-1--------1--|-3--------3--|-3--------3--|
G:-------0-----|-------0-----|-------0-----|-------0-----|
D:-----2-------|-----2-------|-------------|-------------|
A:-3-----------|-3-----------|-----2-------|-----2-------|
E:-------------|-------------|-0-----------|-0-----------|

  Am                          G
e:-------------|------3~-----|-------------|-------------|
B:-1--------1--|-0h1-------1-|-0--------3--|-0---1---3---|
G:-------2-----|-------------|-------0-----|-0---0---0---|
D:-----2-------|-------------|-----0-------|-------------|
A:-0-----------|-0-----------|-------------|-------------|
E:-------------|-------------|-3-----------|-3---3---3---|
[ Tab from: http://www.guitartabs.cc/tabs/0-9/2ne1/lonely_tab_ver_2.html ]
  C(add9)                     E or E7
e:-------------|-0-----------|-------------|-0-----------|
B:-3--------3--|----------3--|-3--------3--|----------3--|
G:-------0-----|-------0-----|-------0-----|-------0-----|
D:-----2-------|-----2-------|-------------|-------------|
A:-3-----------|-3-----------|-----2-------|-----2-------|
E:-------------|-------------|-0-----------|-0-----------|

  Am                          G
e:-------------|------3~-----|-------------|-------------|
B:-1--------1--|-0h1------1--|-0--------0--|-0---1---3---|
G:-------2-----|-------------|-------0-----|-0---0---0---|
D:-----2-------|-------------|-----0-------|-------------|
A:-0-----------|-0-----------|-------------|-------------|
E:-------------|-------------|-3-----------|-3---3---3---|

LAST PART OF THE VERSE WOULD BE THE SAME EXCEPT FOR CHORD G.


  G              F
e:-------------|-------------|
B:-0-------0---|-------------|
G:------0------|--5-----7----|
D:----0--------|--6-----8----|
A:-------------|--6-----8----|
E:-3-----------|--4-----6----|



Chorus: (strum)

C - E7 - Am - G (repeat)


My strum pattern:

D Ux UUUDUDU


By: Rosemarie Villanueva

Credits to: http://tabs.ultimate-guitar.com/m/misc_unsigned_bands/2ne1_-_lonely_tab.htm

(I EDITED SOME OF THIS^ TABS)
Comments