2NE1 - I Am The Best Chords & Tabs

 

I Am The Best Chords & Tabs

2NE1 Chords & Tabs

Version: 1 Type: Tab 0 ratings
1 star 2 stars 3 stars 4 stars 5 stars
comments

I Am The Best Tab

   
This is my first tab hope you like
email me corrections at GuitaristKuma@Gmail.Com
=] Thanks ~

I Am The Best (2NE1) Tab

--------------------------------------------|
--------------------------------------------|
-----5-5-5--5-5--5-3------------------------|
-------------------6-5----------------------|  x6
-3-3-------------------6-5------------------|
--------------------------------------------|

--------------------------------------------|
--------------------------------------------|
--------------------------------------------|
--------------------------------------------|  x3
-3-3-3-3-3--3-4-3-4-3-7---------------------|
--------------------------------------------|

--------------------------------------------|
--------------------------------------------|
--------------------------------------------|
--------------------------------------------|
-3-3-3-3-3--3-4-3-4~------------------------|
--------------------------------------------|

--------------------------------------------|
--------------------------------------------|
-----------------------------5-5----5-5-----|
------------------2-2-2-2-------------------|
-3-3-3-3-3-3-3-3--3-3-3-3--3-----3-3--------|
--------------------------------------------|

--------------------------------------------|
--------------------------------------------|
----------------------------5-5-------------|
----------------3-3-3-3--2-------2~---------|
-3-3-3-3-3-3-3--3-3-3-3---------------------|
--------------------------------------------|

--------------------------------------------|
--------------------------------------------|
--------------------------------------------|
-7-7-5-5-2-2------7-7-5-5-2-2---------------|
-------------3-3--------------3-------------|
--------------------------------------------|

--------------------------------------------|
--------------------------------------------|
--------------------------------------------|
-7-7-5-5-2-2-----7-7-5-5-2-2-5--------------|
-------------3-3----------------------------|
--------------------------------------------|

--------------------------------------------|
--------------------------------------------|
--------------------------------------------|
--------------------------------------------|  x2
-3-3-3-3-3-3-3-3-1-1-1-1-3-3----------------|
--------------------------------------------|
[ Tab from: http://www.guitartabs.cc/tabs/0-9/2ne1/i_am_the_best_tab.html ]
--------------------------------------------|
--------------------------------------------|
-----5-5-5--5-5--5-3------------------------|
-------------------6-5----------------------|  x8
-3-3-------------------6-5------------------|
--------------------------------------------|

--------------------------------------------|
--------------------------------------------|
-----------------------------5-5----5-5-----|
------------------2-2-2-2-------------------|
-3-3-3-3-3-3-3-3--3-3-3-3--3-----3-3--------|
--------------------------------------------|

--------------------------------------------|
--------------------------------------------|
----------------------------5-5-------------|
----------------3-3-3-3--2-------2~---------|
-3-3-3-3-3-3-3--3-3-3-3---------------------|
--------------------------------------------|

--------------------------------------------|
--------------------------------------------|
--------------------------------------------|
-7-7-5-5-2-2------7-7-5-5-2-2---------------|
-------------3-3--------------3-------------|
--------------------------------------------|

--------------------------------------------|
--------------------------------------------|
--------------------------------------------|
-7-7-5-5-2-2-----7-7-5-5-2-2-5--------------|
-------------3-3----------------------------|
--------------------------------------------|

--------------------------------------------|
--------------------------------------------|
--------------------------------------------|
--------------------------------------------|  x2
-3-3-3-3-3-3-3-3-1-1-1-1-3-3----------------|
--------------------------------------------|

--------------------------------------------|
--------------------------------------------|
-----5-5-5--5-5--5-3------------------------|
-------------------6-5----------------------|  x8
-3-3-------------------6-5------------------|
--------------------------------------------|

here just alternate with Am and Bm (strum 5 each )
Am:                     Bm:
--|----|----|----    --1-|-----|-----|-----|
-1|----|----|----    ----|---2-|-----|-----|
--|--2-|----|----    ----|-----|---3-|-----|
--|--3-|----|----    ----|-----|---4-|-----|
--|----|----|----    --1-|-----|-----|-----|
--|----|----|----    ----|-----|-----|-----|
(1st fret)           (2nd fret)

--------------------------------------------|
--------------------------------------------|
--------------------------------------------|
--------------------------------------------|  x3
-3-3-3-3-3--3-4-3-4-3-7---------------------|
--------------------------------------------|

--------------------------------------------|
--------------------------------------------|
--------------------------------------------|
--------------------------------------------|
-3-3-3-3-3--3-4-3-4~------------------------|
--------------------------------------------|
Comments