2feet Forward - Never Know Chords & Tabs

 

Never Know Chords & Tabs

2feet Forward Chords & Tabs

Version: 1 Type: Tab 0 ratings
1 star 2 stars 3 stars 4 stars 5 stars
comments

Never Know Tab

2Feet Forward
Never Knew
Standard Tunning
Tabbed by: Jerry

Intro
e-----------------------------------------------------------------------
B-----------------------------------------------------------------------
G-----------------------------------------------------------------------
D---4--4--4--4--4--4--4--4--4--4--4--4--4--5--5--5--5--5--4--4--4--4--4-
A--2--2--2--2--2--2--2--2--2--2--2--2--2--2--3--3--3--3--2--2--2--2--2--
E-----------------------------------------------------------------------

Verse 1 and 2
e-----------------------------------------|-------------------------------
B-----------------------------------------|-------------------------------
G------0---------------0------------------|-------------------------------
D----4---4---4---4---4---4-----4---4-(4x)-|-then---4---5---5--7---5--4--4-
A--2-------2---5---2-------0-2---5--------|------2---2---3---3--5---3--2--
E-----------------------------------------|-------------------------------
[ Tab from: http://www.guitartabs.cc/tabs/0-9/2feet_forward/never_know_tab.html ]
Pre-Chorus
e------------------------------------------------------------------------------------------
B------------------------------------------------------------------------------------------
G------------------------------------------------------------------------------------------
D--4-4-5-5-7-7-5-5-4-4---2-2-2-2---------------------------(dist.)--2-2x-2-2x-2-2-0-2------
A--2-2-3-3-5-5-3-3-2-2---2-2-2-2-2-2-2-2-2-2-2-2-2-2-2-2--(2x)-then-2-2x-2-2x-2-2-0-2-(4x)-
E------------------------0-0-0-0-2-2-2-2-3-3-3-3-2-2-2-2------------0-0x-0-0x-0-0-1-0------

Chorus w/distortion
e-----------------------------------------------------------------------------------
B-----------------------------------------------------------------------------------
G-----------------------------------------------------------------------------------
D--2-2-2-2-4-4-4-4-2/4-5-5-5-4-4-4-2/7-7-7-7-0-0-5-5-5-5----(reapeat until 2nd vs.)-
A--2-2-2-2-4-4-4-4-2/4-5-5-5-4-4-4-2/7-7-7-7-0-0-5-5-5-5----------------------------
E--2-2-2-2-4-4-4-4-2/4-5-5-5-4-4-4-2/7-7-7-7-0-0-5-5-5-5----------------------------

Outro
e----------------------------------------------------------------
B----------------------------------------------------------------
G----------------------------------------------------------------
D--7-7-7-7-7-7-7-7-7-7--0-0-0-0-0-0-5-5-5-5-5--------------------
A--7-7-7-7-7-7-7-7-7-7--0-0-0-0-0-0-5-5-5-5-5--------------------
E--7-7-7-7-7-7-7-7-7-7--0-0-0-0-0-0-5-5-5-5-5--------------------

ENJOY!
Will have solo later for you all.



Comments