2 Skinnee Js - Three Minutes Chords & Tabs

 

Three Minutes Chords & Tabs

2 Skinnee Js Chords & Tabs

Version: 1 Type: Tab 0 ratings
1 star 2 stars 3 stars 4 stars 5 stars
comments

Three Minutes Tab

Intro w/ tremelo:
 -------------------------------|
 -------------------------------|
 ------5--8-/-12--8-/-13--8-7---|
 ------x--x---x---x---x---x-x---|
 ------3--6-/-10--6-/-11--6-5---|
 14-\---------------------------|

Chorus "we got... three minutes...":
 ---------------------------|
 ---------------------------|
 5-5-5--5-5-5---------------|
 5-5-5--5-5-5--5-5-5--5-5-5-|
 3-3-3--3-3-3--5-5-5--5-5-5-|
 --------------3-3-3--3-3-3-|

Verse "is this thing on?..": (with wah)
 -------------|
 -------------|
 -------------|
 -------------|
 --5---5----6-|
 3---3----4---|

Verse (guitar two)
 ------------------------------------------------|
 ------------------------------------------------|
 ------------------------------------------------|
 --------------------------------12-h-13-12-h-13-|
 ---------5-h-6-5-h-6-/-10--10-11----------------|
 /-3--3-4----------------------------------------|

 ------------|
 ------------|
 ------------|
 ------------|
 -10--10-9-8-|
 ------------|
[ Tab from: http://www.guitartabs.cc/tabs/0-9/2_skinnee_js/three_minutes_tab.html ]
Chorus:
 ---------------------------|
 ---------------------------|
 5-5-5--5-5-5---------------|
 5-5-5--5-5-5--5-5-5--5-5-5-|
 3-3-3--3-3-3--5-5-5--5-5-5-|
 --------------3-3-3--3-3-3-|

Verse: no guitar for first few lines, then:
 ------------------------------------------------|
 ------------------------------------------------|
 ------------------------------------------------|
 --------------------------------12-h-13-12-h-13-|
 ---------5-h-6-5-h-6-/-10--10-11----------------|
 /-3--3-4----------------------------------------|

 ------------|
 ------------|
 ------------|
 ------------|
 -10--10-9-8-|
 ------------|

Chorus:
 ---------------------------|
 ---------------------------|
 5-5-5--5-5-5---------------|
 5-5-5--5-5-5--5-5-5--5-5-5-|
 3-3-3--3-3-3--5-5-5--5-5-5-|
 --------------3-3-3--3-3-3-|

Interlude w/ wah:
 ------------------|
 ------------------|
 ------------------|
 ------------------|
 3-3--4---3-3--4---|
 -------4--------4-|

 -----------------------|
 -----------------------|
 -----------------------|
 3--6-/-10--6-/-11--6-5-|
 x--x---x---x---x---x-x-|
 1--4-/-8---4-/-9---4-3-|
Comments