2 Skinnee Js - The Whammy Chords & Tabs

 

The Whammy Chords & Tabs

2 Skinnee Js Chords & Tabs

Version: 1 Type: Bass Tab 0 ratings
1 star 2 stars 3 stars 4 stars 5 stars
comments

The Whammy Bass Tab

Song: The Whammy
Band: 2 Skinnee J's
Album: Super mercado
tabbed by: Paul Jonak


G:----------------------------------|
D:----------------------------------|
A:----------------------------------|
E:---4-4--/-10---10-\--4-4-4---5---|


G:----------------------------------------------|
D:----------------------------------------0-3---|
A:---6-----6-------6----5-----5---0-5-0-5-------|
E:------4-----4------4-----3--------------------|

[ Tab from: http://www.guitartabs.cc/tabs/0-9/2_skinnee_js/the_whammy_btab.html ]
G:---------------------|
D:---------------------|
A:---------------------|
E:---2-4-2-4-2-4-2-4---|


G:-------------|
D:-------------|
A:-------------|
E:---4-4-2-2---|


G:-------------------------------|
D:-------------------------------|
A:-------------------------------|
E:---0--2--0--2-2--X-X---X---X---| 


There are all of the parts.  Listen to the song to tell where they go, 
exactly how many times each note is played and how many times each part 
is repeated.  






Comments