2 Skinnee Js - Big Beat Evangelists Chords & Tabs

 

Big Beat Evangelists Chords & Tabs

2 Skinnee Js Chords & Tabs

Version: 1 Type: Bass Tab

Big Beat Evangelists Bass Tab

   
Artist: 2 Skinnee J's
Song: Big Beat Evangelists
Album: Volumizer (2002)
Bassist: Mr. Eddie Eyeball
Tuning: B-E-A-D-G


Intro:
G|----------------------------|
D|----------------------------|
A|--2-----2------0-0-2-2-3-3--|
E|----------------------------|
B|----0~----0~----------------| (x4)


Verse 1:
G|----------------------------|
D|----------------------------|
A|--2-----2------0-0-2-2-3-3--|
E|----------------------------|
B|----0~----0~----------------| (x4)

[ Tab from: http://www.guitartabs.cc/tabs/0-9/2_skinnee_js/big_beat_evangelists_btab.html ]
Chorus:
G|------------|
D|------------|
A|------------|
E|------------|
B|--3~----3~--| (x4)


Verse 2:
G|----------------------------|
D|----------------------------|
A|--2-----2------0-0-2-2-3-3--|
E|----------------------------|
B|----0~----0~----------------| (x8)


Chorus:
G|------------|
D|------------|
A|------------|
E|------------|
B|--3~----3~--| (x4)


Outro:

 Rest

G|-----------------------------------------|
D|-----------------------------------------|
A|-------5-5---------------5-5-------------|
E|--3-3-------3--------3-3------3----------|
B|--------------4~----------------4~---6~--| (x4)