2 Percent - Empeno Chords & Tabs

 

Empeno Chords & Tabs

2 Percent Chords & Tabs

Version: 1 Type: Tab 0 ratings
1 star 2 stars 3 stars 4 stars 5 stars
comments

Empeno Tab

   
E-----------------------------------------------------------
B-----------------------------------------------------------
G-----------------------------------------------------------
D-------1-3-1--11---11-------1-3-1--11---11-----------------
A---3-3--3-3-3-11---11---3-3--3-3-3-11---11-----------------
D--------------11---11--------------11---11-----------------

E-----------------------------------------------------------
B-----------------------------------------------------------
G-----------------------------------------------------------
D-------1-3-1--11---11-------1-3-1--11---11-----------------
A---3-3--3-3-3-11---11---3-3--3-3-3-11---11-----------------
D--------------11---11--------------11---11-----------------

E-----------------------------------------------------------
B-----------------------------------------------------------
G-----------------------------------------------------------
D-------1-3-1--11---11-------1-3-1--11---11-----------------
A---3-3--3-3-3-11---11---3-3--3-3-3-11---11-----------------
D--------------11---11--------------11---11-----------------

E-----------------------------------------------------------
B-----------------------------------------------------------
G-----------------------------------------------------------
D-------1-3-1--11---11-------1-3-1--11---11-----------------
A---3-3--3-3-3-11---11---3-3--3-3-3-11---11-----------------
D--------------11---11--------------11---11-----------------
[ Tab from: http://www.guitartabs.cc/tabs/0-9/2_percent/empeno_tab.html ]
E-----------------------------------------------------------
B-----------------------------------------------------------
G-----------------------------------------------------------
D6-6-6-6-6-6-6-6-6-6-6-6-6-6-6-3-3-3-3-3-3-3-3-3-3-3-3-3-3-3
A6-6-6-6-6-6-6-6-6-6-6-6-6-6-6-3-3-3-3-3-3-3-3-3-3-3-3-3-3-3
D6-6-6-6-6-6-6-6-6-6-6-6-6-6-6-3-3-3-3-3-3-3-3-3-3-3-3-3-3-3

E-----------------------------------------------------------
B-----------------------------------------------------------
G-----------------------------------------------------------
D6-6-6-6-6-6-6-6-6-6-6-6-6-6-6-3-3-3-3-3-3-3-3-3-3-3-3-3-3-3
A6-6-6-6-6-6-6-6-6-6-6-6-6-6-6-3-3-3-3-3-3-3-3-3-3-3-3-3-3-3
D6-6-6-6-6-6-6-6-6-6-6-6-6-6-6-3-3-3-3-3-3-3-3-3-3-3-3-3-3-3
(4X)

E-----------------------------------------------------------
B-----------------------------------------------------------
G-----------------------------------------------------------
D-------1-3-1--11---11--------------------------------------
A---3-3--3-3-3-11---11--------------------------------------
D--------------11---11--------------------------------------

E-----------------------------------------------------------
B-----------------------------------------------------------
G-----------------------------------------------------------
D6-6-6-6-6-6-6-6-6-6-6-6-6-6-6-3-3-3-3-3-3-3-3-3-3-3-3-3-3-3
A6-6-6-6-6-6-6-6-6-6-6-6-6-6-6-3-3-3-3-3-3-3-3-3-3-3-3-3-3-3
D6-6-6-6-6-6-6-6-6-6-6-6-6-6-6-3-3-3-3-3-3-3-3-3-3-3-3-3-3-3

E-----------------------------------------------------------
B-----------------------------------------------------------
G-----------------------------------------------------------
D6-6-6-6-6-6-6-6-6-6-6-6-6-6-6-3-3-3-3-3-3-3-3-3-3-3-3-3-3-3
A6-6-6-6-6-6-6-6-6-6-6-6-6-6-6-3-3-3-3-3-3-3-3-3-3-3-3-3-3-3
D6-6-6-6-6-6-6-6-6-6-6-6-6-6-6-3-3-3-3-3-3-3-3-3-3-3-3-3-3-3
Comments