28 Days - Whats The Deal Chords & Tabs

 

Whats The Deal Chords & Tabs

28 Days Chords & Tabs

Version: 2 Type: Tab 0 ratings
1 star 2 stars 3 stars 4 stars 5 stars
comments

Whats The Deal Tab

   
-------------------------------------------------------------------------------
			    WHATS THE DEAL? - 28 Days
-------------------------------------------------------------------------------

Tabbed by: Adam C
Email: Antiskeptik@hotmail.com

Tuning: Normal


Verse part 1- Play 3 Times
e|---------------------------------------------------------------------------|
B|---------------------------------------------------------------------------|
G|---------------------------------------------------------------------------|
D|---2---2--5--2--2--3--3--3--3--2--3--3--3--3--2--2-------------------------|
A|-3---3---------------------------------------------------------------------|
E|---------------------------------------------------------------------------|

Verse part 2 with Wah Wah Pedal- Use these chords (NOt sure if this bits right)
e|---------------------------------------------------------------------------|
B|---------------------------------------------------------------------------|
G|--------7-7-7--5-5-5-------------------------------------------------------|
D|-7-7-7--5-5-5--3-3-3-------------------------------------------------------|
A|-5-5-5---------------------------------------------------------------------|
E|---------------------------------------------------------------------------|

Chorus                   "All the bear..."
e|---------------------------------------------------------------------------|
B|---------------------------------------------------------------------------|
G|-/5-5-5---------7-7-7------------------------------------------------------|
D|-/5-5-5--5-5-5--7-7-7------------------------------------------------------|
A|-/3-3-3--5-5-5--5-5-5--7-7-8-8-5-3-----------------------------------------|
E|---------3-3-3-------------------------------------------------------------|
[ Tab from: http://www.guitartabs.cc/tabs/0-9/28_days/whats_the_deal_tab_ver_2.html ]
                         "With my kid..."
e|---------------------------------------------------------------------------|
B|---------------------------------------------------------------------------|
G|--5-5-5---------7-7-7------------------------------------------------------|
D|--5-5-5--5-5-5--7-7-7------------------------------------------------------|
A|--3-3-3--5-5-5--5-5-5--5~-5~-5~--------------------------------------------|
E|---------3-3-3-------------------------------------------------------------|

After second chorus
e|---------------------------------------------------------------------------|
B|---------------------------------------------------------------------------|
G|-2----5--5--323232---------------------------------------------------------|
D|---3---------------3h------------------------------------------------------|
A|---------------------------------------------------------------------------|
E|---------------------------------------------------------------------------|


3RD VERSE IS JUST BASS AND DRUMS


Outro- Slow and Clean
e|---------------------------------------------------------------------------|
B|---------------------------------------------------------------------------|
G|-2--2--5--2--2--3--2--3--2-------------------------------------------------|
D|----------------------------3h---------------------------------------------|
A|---------------------------------------------------------------------------|
E|---------------------------------------------------------------------------|


If you have any questions, comments, corrections, or abuse, Email me:
antiskeptik@hotmail.com


| /  slide up
| \  slide down
| h  hammer-on
| p  pull-off
| ~  vibrato
| +  harmonic
| x  Mute note

===============================================================================
Comments