28 Days - Tunnel Vision Chords & Tabs

 

Tunnel Vision Chords & Tabs

28 Days Chords & Tabs

Version: 1 Type: Tab 0 ratings
1 star 2 stars 3 stars 4 stars 5 stars
comments

Tunnel Vision Tab

Tunnel Vision - 28 Days
album : Stealing Chairs
tabbed by Brendan

standard tuning
slide : /
pull off : p
palm mute : *


FIRST RIFF (starts after the feedback)
e-----------------------------------------------------|
B-----------------------------------------------------|
G-----------------------------------------------------|
D----------------------------------------5-5--4-4-----|
A--4p0-4p0-4/7--4p0-4p0-4-0-4p0-4p0-4/7--3-3--2-2--4*-|
E--2p0-2p0-2/5--2p0-2p0-2-0-2p0-2p0-2/5------------2*-|

VERSE RIFF - virtually the same as the opening riff,
only these are the only notes to be heard before the bridge.
e--------------------------------------------------|
B--------------------------------------------------|
G--------------------------------------------------|
D----------------------------------------5-5--4-4--|
A----------------------------------------3-3--2-2--|
E--------------------------------------------------|
[ Tab from: http://www.guitartabs.cc/tabs/0-9/28_days/tunnel_vision_tab.html ]
BRIDGE
e------------------------------------------------------------------|
B------------------------------------------------------------------|
G------------------------------------------------------------------|
D------------------------------------------------------------------|
A--4*-4*4*4*4*4*4*4*4*4*4*4*4*4*4*5*-5*5*5*5*5*5*5*5*5*5*5*5*5*5*--|
E--2*-2*2*2*2*2*2*2*2*2*2*2*2*2*2*3*-3*3*3*3*3*3*3*3*3*3*3*3*3*3*--|

CHORUS RIFF - play this right through the chorus, this riff repeats
like 4 times i think.
e-------------------------------------|
B-------------------------------------|
G-------------------------------------|
D------9--7--6-6/7-6-----9--7--6------|
A------7--5--4-4/5-4-----7--5--4-7-9--|
E--0-0---------------0-0---------5-7--|

INTERLUDE - repeat this little bit until the chorus starts again.
e--------------------------------|
B--------------------------------|
G--------------------------------|
D--------------------------------|
A--------------------------------|
E--2-2-2/3--2-222-2/3p0-2-2-2/3--|

ENDING NOTE
e-----------|
B-----------|
G-----------|
D------7-9--|
A--4-5-5-7--|
E--2-3------|


ORDER
FIRST RIFF x 2
VERSE RIFF X 4
BRIDGE 
CHORUS RIFF
VERSE RIFF x 4
FIRST RIFF x 2
BRIDGE
CHORUS RIFF
INTERLUDE x 4
CHORUS RIFF
ENDING NOTE
Comments