28 Days - Take Me Away Chords & Tabs

 

Take Me Away Chords & Tabs

28 Days Chords & Tabs

Version: 2 Type: Tab 0 ratings
1 star 2 stars 3 stars 4 stars 5 stars
comments

Take Me Away Tab

tabbed by ali

e------------0-----------0---------------------------------
b------3-----------3-----------0---------------------------
g---2-----2-----2-----2-----2------------------------------  x 2
d----------------------------------------------------------
a----------------------------------------------------------
E----------------------------------------------------------

[ Tab from: http://www.guitartabs.cc/tabs/0-9/28_days/take_me_away_tab_ver_2.html ]
verses
e----------------------------------------------------------
b----------------------------------------------------------
g---7--7--7--7---------------------------------------------
d---7--7--7--7--x4--5--5--5--4--4--4-----------------------
a---5--5--5--5------5--5--5--4--4--4--x2-------------------
E-------------------3--3--3--2--2--2-----------------------


chorus
e----------------------------------------------------------
b----------------------------------------------------------
g--10-10-10-10---5--5--5--5---7--7--7--7---7/9--7/9--------
d--10-10-10-10---5--5--5--5---7--7--7--7---7/9--7/9-------- x 2
a--8--8--8--8----3--3--3--3---5--5--5--5---5/7--5/7--------
E----------------------------------------------------------

finish on
e------------0-----------0---------------------------------
b------3-----------3---------------------------------------
g---2-----2-----2-----2------------------------------------  x 2
d----------------------------------------------------------
a----------------------------------------------------------
E----------------------------------------------------------
Comments