28 Days - Take Me Away Chords & Tabs

 

Take Me Away Chords & Tabs

28 Days Chords & Tabs

Version: 1 Type: Tab 0 ratings
1 star 2 stars 3 stars 4 stars 5 stars
comments

Take Me Away Tab

smash_box69@hotmail.com
now there may be some floors with this tab cause 
it's only the second time i've tabbed a 
song but i'm sure if you listen to the song you'll figure
it out .

28 days- take me away

intro
E|-----------|--------|-----------|----------|
B|---------5-|--------|---------5-|----------|
G|----7------|-----7--|-----7-----|------7---|   =(repeat x3)
D|--7---7----|--7-----|---5---5---|---5------|
A|-----------|--------|-----------|----------|
e|-----------|--------|-----------|----------|
  (repeatx2)           (repeat x2)

[ Tab from: http://www.guitartabs.cc/tabs/0-9/28_days/take_me_away_tab.html ]
E|-x-|-x-|                  
B|-x-|-x-|
G|-7-|-x-|
D|-7-|-5-|  (repeat x2)
A|-5-|-5-|
e|-x-|-3-|
with distortion

E|-x-x-x-x-x--x--x-x-x-x--x--x-x-x-x-x-x-x-x-x-x-x|
B|-x-x-x-x-x--x--x-x-x-x--x--x-x-x-x-x-x-x-x-x-x-x|
G|-7-7-7-7-7--7--7-7-7-7--7--x-x-x-x-x-x-x-x-x-x-x|
D|-7-7-7-7-7--7--7-7-7-7--7--5-5-5-5-5-5-5-5-5-5-5|
A|-5-5-5-5-5--5--4-4-4-4--4--5-5-5-5-5-5-5-5-5-5-5|
e|-x-x-x-x-x--x--x-x-x-x--x--3-3-3-3-3-3-3-3-3-3-3|

E|-x-|-x-|                  
B|-x-|-x-|
G|-7-|-x-|
D|-7-|-5-|  (repeat x2)
A|-5-|-5-|
e|-x-|-3-|
with distortion


i haven't worked out the chorus yet but when i do i'll post it.
Comments