28 Days - Take Me Away Chords & Tabs

 

Take Me Away Chords & Tabs

28 Days Chords & Tabs

Version: 1 Type: Chords 0 ratings
1 star 2 stars 3 stars 4 stars 5 stars
comments

Take Me Away Chords

   
song-take me away
artist-28 days
tabbed by brad

intro

e|-------0---------0------------0--------0------
b|---3--------3--------3----3--------3-------3--
g|-----2----2----2---2--------2----2---2---2----
d|-0--------------------------------------------
a|----------------------------------------------
E|------------------------3---------------------
[ Tab from: http://www.guitartabs.cc/tabs/0-9/28_days/take_me_away_crd.html ]
verse
Dx8 Gx8

chorus
Fx4 Gx4 Dx8


theres a little bit in between the verses that goes like this

e|-----------------
b|-3-3-3-3-2-2-2-2-
g|-2-2-2-2-2-2-2-2-
d|-----------------
a|-----------------
E|-----------------

the song has got like 10 words in the whole song but its still good. 

questions comments email me at yobbos_rule@hotmail.com
Comments