28 Days - Take Me Away Chords & Tabs

 

Take Me Away Chords & Tabs

28 Days Chords & Tabs

Version: 1 Type: Bass Tab 0 ratings
1 star 2 stars 3 stars 4 stars 5 stars
comments

Take Me Away Bass Tab

   
----------------------------------------------------------------------------
                                  TAKE ME AWAY - 28 Days
----------------------------------------------------------------------------

Tabbed By : Josh Stevenson
e-mail: joshstevo@hotmail.com

Tuning: standard

Intro
G|-----------|
D|-----------|
A|--6/7------|
E|------8----|

Intro 2 / Interlude 
G|------------7-6-2-2h3------------------------------------------------|
D|--77777777------------555-444----------------------------------------|
A|------------------------------555-333-22-----------------------------|
E|----------------------------------------3----------------------------|
[ Tab from: http://www.guitartabs.cc/tabs/0-9/28_days/take_me_away_btab.html ]
Verse/Pre Chorus
G|------------------------------------------------------------|
D|--4h5555555-4h555555----------------------------------------|
A|---------------------4h555555-4h5555555---------------------|
E|------------------------------------------------------------|

Chorus
G|-----------------------------------------------------------------------|
D|-----------------------------------------------------------------------|
A|---8888-3-333--5555-5h777-5h777----------------------------------------|
E|-----------------------------------------------------------------------|

Heavy part after Interlude
G|-----------------------------------------------------------------------|
D|-----------------------------------------------------------------------|
A|---5555555555555555----------------------------------------------------|
E|--------------------3333333333333333-----------------------------------|

| /  slide up
| \  slide down
| h  hammer-on
| p  pull-off
| ~  vibrato
| +  harmonic
| x  Mute note
============================================================================
Comments