28 Days - Sucker Chords & Tabs

 

Sucker Chords & Tabs

28 Days Chords & Tabs

Version: 4 Type: Bass Tab 0 ratings
1 star 2 stars 3 stars 4 stars 5 stars
comments

Sucker Bass Tab

28-Days 
"Sucker" from "Upstyledown"
Written by Damien Gardiner 
Tabbed by Darcy Coffey - sumbody_else@hotmail.com

Damo's a mad bassist he's my idol as a bass player I was lucky enough
to meet him at Livid 03! Here's how I rekon Sucker goes...cheers.

Standard Tuning
I
Intro
G-------------------------------------------------I
D-------------------------------------------------I
A-------------------------------------------------I
E----2--2----2--2----2--2----2--2-------2/--------I

Verse 
Slapped with the open G poped
G------------0--------------0-------------0---------------------I
D---------------------------------------------------------------I
A---------------------------------------------------------------I
E------2-2-----00-----2-2-----00----2-2-----00--55-33-2---------I
[ Tab from: http://www.guitartabs.cc/tabs/0-9/28_days/sucker_btab_ver_4.html ]
2nd Part of the Verse
Not Slapped
G-----------------------------------------------------I
D-----------------------------------------------------I
A-----------------------------------------------------I
E-----2-2---0-2-2---0-2-2---0-5-5-3-3-3---------------I

Chorus

G--------------------------------------------------------------------------I
D--------------------------------------------------------------------------I
A-------------------------------------2-2-2-2-0-0-0-0-0-2-2-2-2-0-0-0-0-0--I
E-2-2-2-2-0-0-0-0-0-2-2-2-2-0-0-0-0-0--------------------------------------I

Bridge/Outro					
G----------------------I			
D----------------------I
A----------------------I
E---2-3--2-3--0--------I

Bridge Riff 2
G---------------------I
D---------------------I
A---------------------I
E-----2--0--3---------I

The Song orders easy to work out just watch for the change in the
bridge and the verse repeated before the last chorus, Enjoy! MELBOURNE PRIDE!!!
Comments