28 Days - Song For Jasmine Chords & Tabs

 

Song For Jasmine Chords & Tabs

28 Days Chords & Tabs

Version: 1 Type: Tab 0 ratings
1 star 2 stars 3 stars 4 stars 5 stars
comments

Song For Jasmine Tab



Song : Song For Jasmine
Artist : 28 Days
Album : Upstyledown


Tuning: Standard

Intro

e  -------------------------|-------------------
b  -------------------------|-------------------
g  -------------------------|-------------------
d  -------------------------|--repeat-----------
a  -------------------------|-------------------
E  --/7------\5----4--5--4--|-------------------

Verse

"I Look Into Your Eyes.."

e  --0--2-2--2/4--2-2-2--0-0-0--2-2----------------------
b  --0--0-0--0----0-0-0--0-0-0--0-0---5p4-5p4-5p4-5p4p0--
g  ------------------------------------------------------
d  ------------------------------------------------------
a  ------------------------------------------------------
E  ------------------------------------------------------

Chorus (Chords)

"Sorry I Had To Go Away.."

e  -------------|-------------------------------
b  -------------|-------------------------------
g  -------------|--2-4-4------------------------
d  --2--5--4--5-|--2-4-4--4-5-5-4---------------
a  --2--5--4--5-|--0-2-2--4-5-5-4---------------
E  --0--3--2--3-|---------2-3-3-2---------------

e  ---------------------------------------------
b  -----------3-3-------------------------------
g  --2-4-4--4-2-2-------------------------------
d  --2-4-4--4-0-0-------------------------------
a  --0-2-2--2-----------------------------------
E  ---------------------------------------------

Solo (* Harmonics)
[ Tab from: http://www.guitartabs.cc/tabs/0-9/28_days/song_for_jasmine_tab.html ]
e  -------|-------------------------------------
b  -------|-------------------------------------
g  --4----|---------------7-------7-------------
d  --4----|-x4--5--5-5----7-------7-------------x2
a  --2-0--|-----5--5-5----5-*7-*7-5-------------
E  -------|-----3--3-3-0------------------------

e  ---------------------------------------------
b  ---------------------------------------------
g  --2--4-----4-----4----------------7----------
d  --2--4-----4-----4---4-5-----5----7--7-------x4
a  --0--2-0-0-2-0-0-2---4-5-----5----5--7-------
E  ---------------------2-3-0-0-3-0-----5-------


e  ---------|-------------|---------------------
b  ---------|-------------|---------------------
g  ------4--|-------------|--------7------------
d  ------4--|-x4---4-4-5--|-x2--4--7-7----------x2
a  --0-0-2--|------4-4-5--|-----4--5-7----------
E  ---------|------2-2-3--|-----2----5----------

e  ---------------------------------------------
b  ---------------------------------------------
g  ---------------------------------------------
d  --4--5---------------------------------------
a  --4--5---------------------------------------
E  --2--3---------------------------------------

Outro

"Its Breaking me.."

e  --0--2-2--0----------------------------------
b  --0--0-0--0----------------------------------
g  ---------------------------------------------
d  ---------------------------------------------
a  ---------------------------------------------
E  ---------------------------------------------

e  ---------------------------------------------
b  ---------------------------------------------
g  --4--2---------------------------------------
d  --4--2--5------------------------------------
a  --2--0--5------------------------------------
E  --------3------------------------------------

Not quite sure about the number of times for the solo.
 


this song is a pretty cool song its not the usuall rap stuff from 28 days
but if u have any thoughts ur welcome to share them with me on
ecca@ericsmail.com
Comments