28 Days - Say What Chords & Tabs

 

Say What Chords & Tabs

28 Days Chords & Tabs

Version: 1 Type: Bass Tab 0 ratings
1 star 2 stars 3 stars 4 stars 5 stars
comments

Say What Bass Tab

tabed by Josh Stevenson
e-mail joshstevo@hotmail.com
i think this is 100% right

Intro/interlude
 
G-----------------------------------------|
D-----------------------------------------|  x2 
A--------------77-------------------------|
E-5----7----8-----887---------------------|

riff 1
[ Tab from: http://www.guitartabs.cc/tabs/0-9/28_days/say_what_btab.html ]
G-----------------------------------------|
D-----------------------------------------|  x8
A-5/7-777---5/7-777---5/7-777----5-4444---|
E-----------------------------------------|


riff 2

G-----------------------------------------|                     |-------------|
D-----------------------------------------|  x4 LAST TIME ROUND |-------------|
A-----------------------------------------|                     |222222-444444|
E-5-5--33333--0-0--30303------------------|                     |-------------|        


interlude

play intro  x8
Comments