28 Days - Sand Chords & Tabs

 

Sand Chords & Tabs

28 Days Chords & Tabs

Version: 1 Type: Bass Tab 0 ratings
1 star 2 stars 3 stars 4 stars 5 stars
comments

Sand Bass Tab

Song:           Sand
Band:           28 Days
Album:          28 Days
tabbed by:      Dase




VERSE
G:---------------------------------------------------------------
D:---------------------------------------------------------------
A:--5-5-55-5-55-5-55-5-3-3-33-3-33-3-33-3-2-2-22-2-22-2-22-2-----
E:---------------------------------------------------------------

[ Tab from: http://www.guitartabs.cc/tabs/0-9/28_days/sand_btab.html ]
G:---------------------------------------------------------------
D:---------------------------------------------------------------
A:-3-3-33-3-33-3-33-3--------------------------------------------
E:---------------------------------------------------------------

CHORUS
G:---------------------------------------------------------------
D:---------------------------------------------------------------
A:-55---33---22---33---------------------------------------------
E:---------------------------------------------------------------

BRIDGE (third and fourth times)
G:---------------------------------------------------------------
D:----/77-5-4---/77-5-4----/77-5-4---/77-5-4---------------------
A:-5----------3---------2----------3-----------------------------
E:---------------------------------------------------------------
Comments