28 Days - Rise Above Chords & Tabs

 

Rise Above Chords & Tabs

28 Days Chords & Tabs

Version: 1 Type: Bass Tab 0 ratings
1 star 2 stars 3 stars 4 stars 5 stars
comments

Rise Above Bass Tab

   
Song:           Rise Above
Band:           28 Days
Album:          28 Days
tabbed by:      Dase


INTRO/VERSE
                                  h
G:---------------------------------------------------------------
D:-------------------5-5-55-5-4---4-5-4--------------------------
A:---7-7-77-7--3-----------------5-------------------------------
E:---------------------------------------------------------------

                        I play this bit as triplets, you slap the
                        open A's, hammer on to the fret, and pop
                        the notes on the G string. I'm not sure
                        whether or not this is what Damian does, but
                        it sounds cool

[ Tab from: http://www.guitartabs.cc/tabs/0-9/28_days/rise_above_btab.html ]
G:--------------------------4------5-------7--------5------------
D:---------------------------------------------------------------
A:---7-7-77-7--3-------(0)2--(0)-3---(0)-5---(0)-3---------------
E:---------------------------------------------------------------

CHORUS
G:---------------------------------------------------------------
D:---------------------------4-5-4-----5-5-55-5-7-75-------------
A:-------------3-3-33-3-5--5------5---------------- 7-3-3-33-3--5
E:--3-3-33-3--5--------------------------------------------------

BRIDGE
G:---------------------------------------------------------------
D:---------------------------------------------------------------
A:-7-7-7-77-5--------2-3-2-------x2-x3-x55-----------------------
E:------------3-3-3----------5-----------------------------------
Comments