28 Days - Rip It Up Chords & Tabs

 

Rip It Up Chords & Tabs

28 Days Chords & Tabs

Version: 8 Type: Tab 0 ratings
1 star 2 stars 3 stars 4 stars 5 stars
comments

Rip It Up Tab

28 DAYS
Rip it up

weiser_01@hotmail.com

E--------------------------------|
B--------------------------------|
G--------------------------------| Riff 1 DRAG FINGERS ACROSS STRINGS CHANGING CHORDS
D-66---99---11/12\11---9/10\99---| 
A-66---99----9 12  9---9 10 99---|
E-44---77----9/10\ 9---7/ 8\77---|

E-------------------------------|
B-------------------------------|
G-------------------------------| Riff 2
D-66-XXXX-99-XXXX-12\11-XX-99---|
A-66-XXXX-99-XXXX-12 11-XX-99---|
E-44-XXXX-77-XXXX-10\ 9-XX-77---|

E-------------------------------|
B-------------------------------|
G-------------------------------| Riff 3
D-1111111111111111-1212121212---|
A-1111111111111111-1212121212---|
E--9-9-9-9-9-9-9-9-1010101010---|
[ Tab from: http://www.guitartabs.cc/tabs/0-9/28_days/rip_it_up_tab_ver_8.html ]
E-----------------------------------------|
B-----------------------------------------|
G-4444444-XX------------------------------| Riff 4
D-4444444-XX--6-6-6-XX-5-XX-5-XX-5-XX-5---|
A-2222222-XX--6-6-6-XX-5-XX-5-XX-5-XX-5---|
E---------XX--4-4-4-XX-3-XX-3-XX-3-XX-3---|

E---------------------------------------------------------|
B---------------------------------------------------------|
G-4-4-4-X--------XX-6-6-6-XXXX-9-9-XX---------------------| Riff 5
D-4-4-4-XXXX-6-6-XX-6-6-6-XXXX-9-9-XX-5-XX-5-XX-55-XX-5---|
A-2-2-2-XXXX-6-6-XX-4-4-4-XXXX-7-7-XX-5-XX-5-XX-55-XX-5---|
E-------XXXX-4-4----------------------3-XX-3-XX-33-XX-3---|

E-----------------------------------------|
B-----------------------------------------|
G-----------------------------------------| Riff 6
D------------5H6H7--7--7--7--7-7--5H7P5---|
A-7--7--7-7-------------------------------|
E-----------------------------------------|

THATS IT I CANT BE BOTHERED FIGURING THE ORDER OUT 
AT THE MOMENT BUT YOU WONT HAVE ANY TROUBLE

YOU'LL FIND THIS IS ONE OF THE BEST VERSIONS ON
THE NET YOU JUST GOTTA GET THE DEAD NOTES RIGHT

MAIL ME WITH ANY CORRECTIONS
Comments