28 Days - Rip It Up Chords & Tabs

 

Rip It Up Chords & Tabs

28 Days Chords & Tabs

Version: 5 Type: Tab 0 ratings
1 star 2 stars 3 stars 4 stars 5 stars
comments

Rip It Up Tab

Song: Rip it up
Artist: 28 Days
Tabbed by: Amy
Email: blink_182_rox69@hotmail.com


This tab is way better then the other rip it up tab they have on ultimate_tabs.

Intro (Put some ranking in between chords)

e----------------------------------------------------
b----------------------------------------------------
g---------4-4--6/7-6--4/6-4--------------------------
d----6-6--4-4--6/7-6--4/6-4--------------------------
a----6-6--2-2--4/5-4--2/4-2--------------------------
E----4-4---------------------------------------------


Chorus (Chords)

"Everybody Rip It Up"
[ Tab from: http://www.guitartabs.cc/tabs/0-9/28_days/rip_it_up_tab_ver_5.html ]
e---------------------------------------------------------
b---------------------------------------------------------
g--6--7---------------------------------------------------
d--6--7---------------------------------------------------
a--4--5---------------------------------------------------
E---------------------------------------------------------

Solo

e---------------------------------------------------------
b---------------------------------------------------------
g---------------------------------------------------------
d--2---------5-6-7-7-7-7p5-7--6-5------------------------
a--2--7-7-7-----------------------------------------------
E--0------------------------------------------------------

Outro (Chord)

e---------------------------------------------------------
b---------------------------------------------------------
g---------------------------------------------------------
d--5------------------------------------------------------
a--5------------------------------------------------------
E--3------------------------------------------------------

Hope ya like it!


Comments