28 Days - Rip It Up Chords & Tabs

 

Rip It Up Chords & Tabs

28 Days Chords & Tabs

Version: 2 Type: Tab 0 ratings
1 star 2 stars 3 stars 4 stars 5 stars
comments

Rip It Up Tab

   
28 Days: rip it up off the album upstyledown.
Use a lot of distortion

Verse                            
E-4-4-7-7-9 /10--9-7--9-7-7-5-    
A-6-6-9-9-11/12-11-9-11-9-9-7-
D-6-6-9-9-11/12-11-9-11-9-9-7- x6
G-----------------------------
B-----------------------------
E-----------------------------

Bridge to chorus                            
E-4-4-7-7-9--9--9--9--9--9--9--9--10-10-10-10-10-
A-6-6-9-9-11-11-11-11-11-11-11-11-12-12-12-12-12-
D-6-6-9-9-11-11-11-11-11-11-11-11-12-12-12-12-12-
G------------------------------------------------                            
B------------------------------------------------
E------------------------------------------------

E-10-10-10-
A-12-12-12-
D-12-12-12-
G----------
B----------
E----------

Chorus
E-7-7-4-4-4-3-3-3-3-
A-9-9-6-6-6-5-5-5-5-
D-9-9-6-6-6-5-5-5-5- x2
G-------------------
B-------------------
E-------------------
[ Tab from: http://www.guitartabs.cc/tabs/0-9/28_days/rip_it_up_tab_ver_2.html ]
E-7-7-4-4-4-9--9--9--10-10-10-10-10-3-3-3-3-3-3-3
A-9-9-6-6-6-11-11-11-12-12-12-12-12-5-5-5-5-5-5-5
D-9-9-6-6-6-11-11-11-12-12-12-12-12-5-5-5-5-5-5-5
G------------------------------------------------
B------------------------------------------------
E------------------------------------------------





E-3-3-3-3-3-3-3-3-3/4
A-5-5-5-5-5-5-5-5-5/6
D-5-5-5-5-5-5-5-5-5/6
G--------------------
B--------------------
E--------------------

Bass intro
Verse x3
Bridge to chorus
Chorus 
Solo
E--------------------------------------
A--------------------------------------
D-0-0-0-0-3-4-5-5-5/6-5-4-0-0-0-0-3-4-5 
G--------------------------------------
B--------------------------------------
E--------------------------------------
(Play around with that)
Bridge to chorus
Chorus (play the chorus but on the last repeat, constantly play this)

E-3-3-3-3-3-3-3-3-3-3-3-3-
A-5-5-5-5-5-5-5-5-5-5-5-5-
D-5-5-5-5-5-5-5-5-5-5-5-5- and so on
G-------------------------
B-------------------------
E-------------------------

Well that’s about it if you want any songs tabbed
Send me an e-mail at roasted_stiff@hotmail.com . Next song nickel back: how you remind me.   
Comments