28 Days - Early Mornings Chords & Tabs

 

Early Mornings Chords & Tabs

28 Days Chords & Tabs

Version: 1 Type: Bass Tab 0 ratings
1 star 2 stars 3 stars 4 stars 5 stars
comments

Early Mornings Bass Tab

This is my first tab and it's a pretty kool song,
i think i got evrything rite, email me at 
danthemangreeneggsandham@hotmail.com for complaints,
compliments or just for fun.
This is just the basic outline but u can figure it out from there.

Intro
G|--------111-444| x4
D|---33-4-33-----|
A|--4------------|
E|---------------| 

Verse  "Early mornings make me angry" etc.
G|--------------| x6
D|--------------|
A|--44----------|
E|--------22----|

Intro x2
[ Tab from: http://www.guitartabs.cc/tabs/0-9/28_days/early_mornings_btab.html ]
Chorus-part 1   "I used to wake at 11" etc.
G|----------2222------|  x2
D|------2222----4444--|
A|--4444--------------|
E|--------------------|
 

Chorus-part 2  "Don't you waste today" etc.
G|--------------------| x4
D|----------2222------|
A|--4444--------------|
E|------2222----4444--|

Verse x6

Chorus-part 1  x4

Bridge   "I don't wanna waste my time away" etc.

G|--------------|  x9
D|--------------|
A|--4--2--1--0--|
E|--------------|

Repeat Chorus-Part 2 until end

And That's It
Comments