25 Days - Punk Anthem Chords & Tabs

 

Punk Anthem Chords & Tabs

25 Days Chords & Tabs

Version: 1 Type: Tab 0 ratings
1 star 2 stars 3 stars 4 stars 5 stars
comments

Punk Anthem Tab

   
25 Days - Punk Anthem
Tabbed By: blink123
EMail: blink123_02@aol.com


This is one of their new songs. It's on their website. 
Pretty short, but it's awesome.


Intro- Play this fast
E|------------------------------------------|
B|------------------------------------------|
G|------------------------------------------|     3X
D|-10-10-10-10-10-10-10-10-10-10-10-10-8--7-|
A|-10-10-10-10-10-10-10-10-10-10-10-10-8--7-|
E|-8--8--8--8--8--8--8--8--8--8--8--8--6--5-|

E|-------------------------|
B|-------------------------|
G|-------------------------|     1X     
D|-10-10-10-10-10-10-10-10-|
A|-10-10-10-10-10-10-10-10-|   Pause for a second then repeat
E|-8--8--8--8--8--8--8--8--|   the Intro

    - Play the whole Intro 2X -


There are two different versions of the song. The only difference
is the verse
[ Tab from: http://www.guitartabs.cc/tabs/0-9/25_days/punk_anthem_tab.html ]
Verse- Version 1
E|----------------|
B|----------------|
G|----------------|     Play this really fast. I'm not sure
D|-10-10-10-10-10-|     how many times you do it but it lasts for 
A|-10-10-10-10-10-|     about 8 seconds. Or just keep playing until 
E|-8--8--8--8--8--|     the words end.

Verse- Version 2   - Play this verse 2X (not fast)-
E|-------------------------------------------------|
B|-------------------------------------------------|
G|-------------------------------------------------|     
D|-10-10-10-10-10-10-10-10-10-10-10-10-10-10-10-10-|
A|-10-10-10-10-10-10-10-10-10-10-10-10-10-10-10-10-|
E|-8--8--8--8--8--8--8--8--8--8--8--8--8--8--8--8--|

E|---------------------------------|
B|---------------------------------|
G|---------------------------------|    
D|-8-8-8-8-8-8-8-8-7-7-7-7-7-7-7-7-|
A|-8-8-8-8-8-8-8-8-7-7-7-7-7-7-7-7-|
E|-6-6-6-6-6-6-6-6-5-5-5-5-5-5-5-5-|

Bass Solo- (No Guitar)

Break-
E|--------------------------------|
B|--------------------------------|
G|--------------------------------|    4X   
D|-10xxxxxx10xxxxxx8xxxxxx7xxxxxx-|
A|-10xxxxxx10xxxxxx8xxxxxx7xxxxxx-|
E|-8-xxxxxx8-xxxxxx6xxxxxx5xxxxxx-|


Intro- 2X

Verse-


Thats all. It's the longest song ever but it's still pretty sweet.
Comments