25 Days - Never Talk To Strangers Chords & Tabs

 

Never Talk To Strangers Chords & Tabs

25 Days Chords & Tabs

Version: 1 Type: Tab 0 ratings
1 star 2 stars 3 stars 4 stars 5 stars
comments

Never Talk To Strangers Tab

   
25 Days - Never Talk To Strangers
Tabbed By: jimmyEATgirl
EMail: lostprophet_13@msn.com


 ~ = carry note

Intro                 3X
E---------------------
B---------------------
G-----------777 5~555-
D-7~77-5555-777 5~555-
A-7~77-5555-555-3~333-
E-5~55-3333-----------

                   1X
E------------------
B------------------
G-----------777 5~-
D-7~77-5555-777 5~-
A-7~77-5555-555-3~-
E-5~55-3333--------


Verse                                       4X
E------------------------------------------
B------------------------------------------
G-----------777 5~555------------777-5~555-
D-7777-5555-777 5~555--7~77-5555-777-5~555-
A-7777-5555-555-3~333--7~77-5555-555-3~333-
E-5555-3333------------5~55-3333-----------


Chorus
E-----------------
B-----------------
G-777777777777777-
D-777777777777777-
A-555555555555555-
E-----------------

                      4X
E---------------------
B---------------------
G-----------777 5~555-
D-7~77-5555-777 5~555-
A-7~77-5555-555-3~333-
E-5~55-3333-----------

E-----------------
B-----------------
G-777777777777777-
D-777777777777777-
A-555555555555555-
E-----------------
[ Tab from: http://www.guitartabs.cc/tabs/0-9/25_days/never_talk_to_strangers_tab.html ]
                      3X
E---------------------
B---------------------
G-----------777 5~555-
D-7~77-5555-777 5~555-
A-7~77-5555-555-3~333-
E-5~55-3333-----------

                   1X
E------------------
B------------------
G-----------777 5~-
D-7~77-5555-777 5~-
A-7~77-5555-555-3~-
E-5~55-3333--------Bass Solo              4x         No guitar
G---------------------
D---------------------
A-----------3333-5555-
E-3333-5555-----------

Break                  3X
E---------------------
B---------------------
G-----------5~55-7777-
D-5~55-7777-5~55-7777-
A-5~55-7777-3~33-5555-
E-3~33-5555-----------

                                 1X
E----------------|-------------|-
B----------------|-------------|-
G-----------5~55-777777777777777-
D-5~55-7777-5~55-777777777777777-
A-5~55-7777-3~33-555555555555555-
E-3~33-5555------|-------------|-
                 |Starts Chorus|


                      4X
E---------------------
B---------------------
G-----------777 5~555-
D-7~77-5555-777 5~555-
A-7~77-5555-555-3~333-
E-5~55-3333-----------

E-----------------
B-----------------
G-777777777777777-
D-777777777777777-
A-555555555555555-
E-----------------

E---------------------
B---------------------
G-----------777 5-----
D-7~77-5555-777 5-----
A-7~77-5555-555-3-----
E-5~55-3333-----------

Order

Intro-1X
Verse-1X
Chorus-1X
Bass Solo-1X
Break-1X
Chorus-1X
Comments