20 Minute Crash - Cfb Song Chords & Tabs

 

Cfb Song Chords & Tabs

20 Minute Crash Chords & Tabs

Version: 1 Type: Tab 0 ratings
1 star 2 stars 3 stars 4 stars 5 stars
comments

Cfb Song Tab

The cfb song
20 minute crash

A great song that I first heard on "Matt Hoffman's BMX" game.


Intro/Chorus

----------------------------------
----------------------------------
--------7--------9----------------
---9----7---7----9----------------
---9----5---7----7----------------
---7--------5---------------------


Verse
[ Tab from: http://www.guitartabs.cc/tabs/0-9/20_minute_crash/cfb_song_tab.html ]
----------------------------------
----------------------------------
--------9-------------------------
---9----9----9---7----------------
---9----7----9---7----------------
---7---------7---5----------------


There is a bit more to it but you can find that,it's not difficult.
For lyrics,Whih are written by Hoffman himself are at www.20mc.com
Thanks...

JA
Comments