200sachen - Sekt Zum Fruhstuck Chords & Tabs

 

Sekt Zum Fruhstuck Chords & Tabs

200sachen Chords & Tabs

Version: 1 Type: Bass Tab

Sekt Zum Fruhstuck Bass Tab

   
200Sachen - Sekt zum Fruehstueck

Bass Standard Tuning (E-A-D-G)

Tabbed by Kevin Ritter (Knaeckebrot)


Be carefull, the Intro isn't exactly the same as the Verse!
The Verse is shorter and you have to slide up to fret 5!


Intro
G|--------------------|--------------------|
D|---------5-5-7777---|---------5-5-7777---|
A|-5-5h7-7h-----------|-555-7-7------------|
E|------------------x3|------------------x1|


Pre-Chorus
G|-----------------------|
D|-----------5555-7777---|
A|-5555-7777-------------|
E|---------------------x2|


Chorus A
G|-----------------------|
D|-----------5555-7777---|
A|-5555-7777-------------|
E|---------------------x2|

[ Tab from: http://www.guitartabs.cc/tabs/0-9/200sachen/sekt_zum_fruhstuck_btab.html ]
Post-Chorus
G|--------------------|----------|
D|---------5-5-7777---|----------|
A|-5-5h7-7h-----------|-5--------|
E|------------------x2|---Break!-|


Verse
G|----------------------|--------------------|
D|-----------5-5-7777---|---------5-5-7777---|
A|-0/5-5h7-7h-----------|-555-7-7------------|
E|--------------------x2|------------------x1|


Pre-Chorus

Chorus A

Post-Chorus

Verse

Chorus A x4


Chorus B
G|-----------------------|----------|
D|-----------7777-9999---|----------|
A|-7777-9999-------------|-7--------|
E|---------------------x4|---Break!-|


End on
G|----|
D|----|
A|-7~-|
E|----|

Official Website of "200Sachen"
http://www.200sachen.de/