1906 - Clip On Magic Chords & Tabs

 

Clip On Magic Chords & Tabs

1906 Chords & Tabs

Version: 1 Type: Tab 0 ratings
1 star 2 stars 3 stars 4 stars 5 stars
comments

Clip On Magic Tab

   
-------------------------------------------------------------------------------
			     Clip-On Magic - 1906
-------------------------------------------------------------------------------
Tabbed by: Benji Dossetter
Email: dossetter06@townschool.com 

Tuning: Standard - (low to high) E,A,D,G,B,E


Intro - First Verse
e|---------------------------------------------------------------------------|
B|---------------------------------------------------------------------------|
G|---------------------------------------------------------------------------|
D|--3-------3-------3------3-------3-------3-------3-------3-------3---------|
A|----5-------5-------5------5-------5-------5-------5-------5-------5-------|
E|------3-4-----3-4-----3-4----3-4-----3-4-----3-4-----3-4-----3-4-----3-4---|
                                                                           
   
Chorus (Most chords should be played using a downstroke, but variation is 
neccessary near the end) 

e|--7-7-7----1-1-1----3-x-3----4-4-4-----------------------------------------|
B|--7-7-7----1-1-1----3-x-3----4-4-4-----------------------------------------|
G|--7-7-7----2-2-2----4-x-4----5-5-5-------(Repeat 8 times)------------------|
D|--7-7-7----3-3-3----5-x-5----6-6-6-----------------------------------------|
A|--5-5-5----3-3-3----5-x-5----6-6-6-----------------------------------------|
E|-----------1-1-1----3-x-3----4-4-4-----------------------------------------|      

[ Tab from: http://www.guitartabs.cc/tabs/0-9/1906/clip_on_magic_tab.html ]
Second Verse
e|---------------------------------------------------------------------------|
B|---------------------------------------------------------------------------|
G|---------------------------------------------------------------------------|
D|--3-------3-------3-------3-------3-------3--------------------------------|
A|----5-------5-------5-------5-------5-------5------------------------------|
E|------3-4-----3-4-----3-4-----3-4-----3-4-----3-4--------------------------|


Second Chorus
e|--7-7-7----1-1-1----3-x-3----4-4-4-----------------------------------------|
B|--7-7-7----1-1-1----3-x-3----4-4-4-----------------------------------------|
G|--7-7-7----2-2-2----4-x-4----5-5-5-------(Repeat 8 times)------------------|
D|--7-7-7----3-3-3----5-x-5----6-6-6-----------------------------------------|
A|--5-5-5----3-3-3----5-x-5----6-6-6-----------------------------------------|
E|-----------1-1-1----3-x-3----4-4-4-----------------------------------------|


Solo (^ above note means "bend down")
e|---------------------------------------------------------------------------|
B|----^-^-^----------^-^-^----------^-^-^--------7-7-7-7-----9-9-9-9---------|
G|--6-8-8-8-6-6----6-8-8-8-6-6----6-8-8-8-6-6--------------------------------|
D|---------------------------------------------------------------------------|
A|--(Repeat solo pattern 4 times, then immediately enter bridge)-------------|
E|---------------------------------------------------------------------------|


Bridge
e|---------------------------------------------------------------------------|
B|--(Repeat the bridge pattern 8 times and then play the chorus once more.---|
G|--The song is done.)-------------------------------------------------------|
D|---------------------------------------------------------------------------|
A|----------3-3-3-3--4-4-4--3-3-3-3-3----------------------------------------|
E|--5-5-5-5------------------------------------------------------------------|

==============================================================================

Comments