16 Volt - Happy Pill Chords & Tabs

 

Happy Pill Chords & Tabs

16 Volt Chords & Tabs

Version: 1 Type: Tab 0 ratings
1 star 2 stars 3 stars 4 stars 5 stars
comments

Happy Pill Tab

Artist: 16 Volt
Song:   Happy Pill
Album:  Supercoolnothing
Tabber: Kenny Burgess

This song is awesome!  I saw it on this movie called "The Crimson Code"
but now they call it "Red Team"


main riff
d-------
A-------
C-------
F-------
G--6-0--
C--6-0--

pre-chorus:
d----------------------------------
A----------------------------------
C----------------------------------
F----------------------------------
G--6-0-xx-x1-xx-x6-xx-x-10-10-4-4--
C--6-0-xx-x1-xx-x6-xx-x-10-10-4-4--
           
or you can play it like this!
[ Tab from: http://www.guitartabs.cc/tabs/0-9/16_volt/happy_pill_tab.html ]
pre-chorus:
d--------------------------------
A--------------------------------
C--------------------------------
F-----------------------5-5------
G--6-0-xx-x1-xx-x6-xx-x-3-3-4-4--
C--6-0-xx-x1-xx-x6-xx-x-----4-4--

chorus:
d----------------------------------------
A----------------------------------------
F----------------------------------------
C----------------------------------------
G-0-10-12-0-10-12-0-10-12-0-10-12-6-6-6--
C-0-10-12-0-10-12-0-10-12-0-10-12-6-6-6--

the riffs after the chorus go in order like this

d-----
A-----
C-----
F-----
G--0--
C--0--

d-------
A-------
C-------
F-------
G--6-0--
C--6-0--

d-----
A-----
C-----
F-----
G--0--
C--0--

d-------
A-------
C-------
F-------
G--6-0--
C--6-0--

The the pre-chorus x2
then the chorus
Comments