13th Floor Elevators - Levitation Chords & Tabs

 

Levitation Chords & Tabs

13th Floor Elevators Chords & Tabs

Version: 1 Type: Tab

Levitation Tab

levitation by the 13th floor elevators
on there 1967 album easter everywhere

guitar 1

rith 1

-----------------------------------------------|
-----------------------------------------------|
----2---2-5-----2------------------------------|
------------4h5--------------------------------|
--0---0----------------------------------------|
-----------------------------------------------|

guitar 2

-3----------------------|
-2----------------------|
-2----------------------|
-2----------------------| x10 do this over rith 1
------------------------|
------------------------|

guitar 1

rith 2
[ Tab from: http://www.guitartabs.cc/tabs/0-9/13th_floor_elevators/levitation_tab.html ]
-----------------------------|
----3---3-6-----3------------|
------------4h5--------------|
--0---0----------------------|
-----------------------------|
-----------------------------|

guitar 2

--8-----|
--7-----|
--7-----| x4 over rith 2
--------|
--------|
--------|

guitar 1

rith 3

---------------------------|
---------------------------|
---------------------------|
--2--2-5-----2-------------|
---------4h5---------------|
-0--0----------------------|

guitar 2

-10---|
-9----|
-9----| x2 over rith 3
------|
------|
------|

chorus
-------2-----1-1-----------|
-2-2-2-3-1---0-0-----------|
-2-2-2-2-0---0-0-----------|
-2-2-2-------0-0-----------|
-----------2-2-2-----------|
-----------3-3-3-----------|

there we go theres the song cant be botherd to lern the solo but i will tab the solo 
[tabbed by stephen crabtree] i will post more 13th floor elevators tabs soon.ROCK ON.