12 Stones - The Way I Feel Chords & Tabs

 

The Way I Feel Chords & Tabs

12 Stones Chords & Tabs

Version: 10 Type: Tab 0 ratings
1 star 2 stars 3 stars 4 stars 5 stars
comments

The Way I Feel Tab

   
12 Stones
The Way I Feel

This is the version I submitted to christianguitar.org.  People, people, can you not
hear that there are bends in the solo and not just playing a single note??!! goodness
gracious.  I couldn't find a good version of the solo so i took it upon myself to figure
it out and it should be the most accurate tab on here....so here you go and enjoy and
rock out on this one..........peace and love, bo

Tuning: Drop C low to high C G C F A D
Verse
--------------------------------------|
--------------------------------------|
--------------------------------------|
-----10-----10-------10-----10---10---|
---8----8----------8----8-------------|
-0--------0----0-8--------8----8------|

--------------------------------------|
--------------------------------------|
---------------------------------10---|
-----10-----10-------10-----10--------|
---8----8----------8----8-------------|
-0--------0----0-8--------8----8------|

Chorus
--------------------------------------|
--------------------------------------|
---------3-3-3-3----------------------|
-x-x-0-0-3-3-3-3-3-3-3-5-5-5-5-3h5----|
-x-x-0-0-1-1-1-1-3-3-3-5-5-5-5-3h5----|
-x-x-0-0---------3-3-3-5-5-5-5-3h5----|

--------------------------------------|
--------------------------------------|
------3-3-3-3-5-5-x-x-5-5-x-x-5-------|
--0-0-3-3-3-3-5-5-x-x-5-5-x-x-5-------|
--0-0-1-1-1-1-3-3-x-x-3-3-x-x-3-------|
--0-0---------------------------------|

Solo:
--------------------------------------------------------------|
--------------------------------------------------------------|
-----------------9-10-12-10-9h10p9------------------10---10-9-|
---12------10-12------------------10------10--10h12---12------|
------------------------------------10h12---------------------|
--------------------------------------------------------------|

----------------------------------------------12-13-15-13-----|
--------------------13--13--13--13--13--13-15-----------------|
--------10--10h12/14------14------14--------------------------|
---10h12--12--------------------------------------------------|
--------------------------------------------------------------|
--------------------------------------------------------------|

-12h13p12-10-12----10------10-----------10-10---10------------|
---------------13--13b(15)-13b(15)-13b(15) ---13*--13*--------|
--------------------------------------------------------------|
--------------------------------------------------------------|
--------------------------------------------------------------|
--------------------------------------------------------------|
[ Tab from: http://www.guitartabs.cc/tabs/0-9/12_stones/the_way_i_feel_tab_ver_10.html ]
                                               *holding bend
--10------10-----------10-10h13p10--10h13p10--10h13p10-------|
--13b(15)-13b(15)-13b(15)---------13--------13--------13-----|
-------------------------------------------------------------|
-------------------------------------------------------------|
-------------------------------------------------------------|
-------------------------------------------------------------|

--10------10-----------10-10h13p10--10 13b(15)13b(15)-13-----|
--13b(15)-13b(15)-13b(15)---------13-------------------------|
-------------------------------------------------------------|
-------------------------------------------------------------|
-------------------------------------------------------------|
-------------------------------------------------------------|

-10h13p10--10------------------------------------------------|
---------13--13b(15)13b(15)-13 10h13p10----------------------|
---------------------------------------12-10h12p10-----------|
--------------------------------------------------12---------|
-------------------------------------------------------------|
-------------------------------------------------------------|

-(15)b17r15----13-15-13h15p13--13-15b(17)-15-13h15p13--13----|
-----------------------------15----------------------15--15--|
-------------------------------------------------------------|
-------------------------------------------------------------|
-------------------------------------------------------------|
-------------------------------------------------------------|

-------------------------10-------------------10--------------|
-13h15p13-13------------10-----------------10--13pb(15)r13p10-|
-------------14p12\10-------12p10--10-12b(14)-----------------|
---------------------12---------12----------------------------|
--------------------------------------------------------------|
--------------------------------------------------------------|

-------------------------------------------------------------|
--------10--------10-10-------10-10---------10-------10-10---|
-12b(14)---12b(14)-----12b(14)------12b(14)---12b(14)--------|
-------------------------------------------------------------|
-------------------------------------------------------------|
-------------------------------------------------------------|

----------------|
----------------|
-12b(14)*-------|
----------------|  End of solo
----------------|
----------------|
   *hold bend
Key:

--12b(14)-----  Means strike the 12th fret and bend up to 14-|
--(12)b14r12--  Means prebend the 12 fret to the 14----------|th fret
                  before striking.  Strike and release bend
                  back to 12th fret
--12b(14)--12*- Means strike the 12th fret and bend up to 14.
                  Strike the string again while holding the bend.
Comments