12 Stones - The Way I Feel Chords & Tabs

 

The Way I Feel Chords & Tabs

12 Stones Chords & Tabs

Version: 1 Type: Tab 1 rating
1 star 2 stars 3 stars 4 stars 5 stars
comments

The Way I Feel Tab

   
(Correct Tab - Just Like Music Video)
Band: 12 Stones
Song: The Way I Feel
Tuning: Drop C low to high C G C F A D

Verse
--------------------------------------
--------------------------------------
--------------------------------------
-----10-----10-------10-----10---10---
---8----8----------8----8-------------
-0--------0----0-8--------8----8------

--------------------------------------
--------------------------------------
---------------------------------10---
-----10-----10-------10-----10--------
---8----8----------8----8-------------
-0--------0----0-8--------8----8------

Chorus(not exact on strumming pattern nor measures but you'll get the idea) 

---------8--8--8--8---8--8--8--8--10-10-10-10-------------
---------8--8--8--8---8--8--8--8--10-10-10-10-------------
---------8--8--8--8---10-10-10-10-10-10-10-10-------------
-x-x-0-0-10-10-10-10--10-10-10-10-12-12-12-12-------------
-x-x-0-0--------------------------------------------------
-x-x-0-0--------------------------------------------------

---------8--8--8--8---10-10-10-10-10-10-10-10-------------
---------8--8--8--8---10-10-10-10-10-10-10-10-------------
---------8--8--8--8---10-10-10-10-10-10-10-10-------------
-----0-0-10-10-10-10--12-12-12-12-12-12-12-12-------------
-----0-0--------------------------------------------------
-----0-0--------------------------------------------------

[ Tab from: http://www.guitartabs.cc/tabs/0-9/12_stones/the_way_i_feel_tab.html ]
Solo
-----------------------------------------------------------
-----------------------------------------------------------
----------------------------10----------------10-8---------
-10-10-10-12-13-12-15-13-12-8-10-8-8--8--8-10----10\8-8--10
----------------------------0-------10-10--------------10--
-----------------------------------------------------------

-----------------------------------------------------------------
------------------------------------------------------13-13-13-16
7-8-10-8-8/9-8/9-10\8-12-15-12-15-12-15-12-14-17-15-12-----------
-----------------------------------------------------------------
-----------------------------------------------------------------
-----------------------------------------------------------------

------------------------------------------------------------------
-13-13-13-16-13-13-13-11-13--11-----------------------------------
---------------------------12--10-10-8-8-10-8-8--8-9-10-12-15-12--
-----------------------------------------------10-----------------
------------------------------------------------------------------
------------------------------------------------------------------

------------------------------------------------------------------
---------------------16-13-11--------------------------15-16-15-13
-10-12-10-12-10-12-10--------11-13-11-13-11-13-11-15-16-----------
------------------------------------------------------------------
------------------------------------------------------------------
------------------------------------------------------------------

-------------------------------------------------------------------
----13--13---------------------------------------------------------
--15--15-----------------------------------------------------------
-------------------------------------------------------------------
-------------------------------------------------------------------
-------------------------------------------------------------------

Thats about it! Have fun with this song! :) 
Comments