12 Stones - The Way I Feel Chords & Tabs

 

The Way I Feel Chords & Tabs

12 Stones Chords & Tabs

Version: 1 Type: Bass Tab 0 ratings
1 star 2 stars 3 stars 4 stars 5 stars
comments

The Way I Feel Bass Tab

Band- 12 Stones
Song- The Way I Feel

Intro (0:09)
G | ----------------------------------------------------------------------------------|
D | ----------------------------------------------------------------------------------|
A | -------------------------------------5h6------------------------------------------|2x
E | -------4-4--6-4--------4-43/4----------------------------------------------------|
B | -1-1--------------1-1-------------------------------------------------------------|
[ Tab from: http://www.guitartabs.cc/tabs/0-9/12_stones/the_way_i_feel_btab.html ]
Verse
G | ----------------------------------------------------------------------------------|
D | ----------------------------------------------------------------------------------|
A | -------------------------------------5h6------------------------------------------|2x
E | -------4-4--6-4--------4-43/4----------------------------------------------------|
B | -1-1--------------1-1-------------------------------------------------------------|

Chorus
G | ----------------------------------------------------------------------------------|
D | ----------------------------------------------------------------------------------|
A | ---------------------------------------------5-----5-5----------------------------|2x
E | -------4-4--------------------------4-4--5---5-5------5-5-------------------------|
B | -1-1-------4-4--6-6--4-4---1-1----------------------------------------------------|

Verse
Chorus

Play Verse for first part of Guitar Solo and play Chorus after the scream

Chorus
Chorus

Song Structure
Intro
Verse
Chorus
Verse
Chorus
Guitar Solo
Chorus
Chorus
Comments