12 Stones - Running Out Of Pain Chords & Tabs

 

Running Out Of Pain Chords & Tabs

12 Stones Chords & Tabs

Version: 2 Type: Tab 0 ratings
1 star 2 stars 3 stars 4 stars 5 stars
comments

Running Out Of Pain Tab

   
Ultimate Guitar Tab
www.ultimate-guitar.com
Artist: 12 Stones
Song:Running Out Of Pain
Tabbed By: Michael Halsted
Lionheart7-77@juno.com
2002 Wind-Up Records

This is a great song. It's easy to play. Just follow the song for strumming.

Drop D Tuning:DADGBE   Intro:
e|-------------------------------------------------------------------|e
B|-------------------------------------------------------------------|B
G|--------0--0-----------0--0-----------0--0-----------0--0----------|G
D|------4------4-------4------4-------4------4-------4------4--------|D
A|----2----------2---2----------2---2----------2---2----------2------|A
D|--2--------------2--------------0--------------0-------------------|D
[ Tab from: http://www.guitartabs.cc/tabs/0-9/12_stones/running_out_of_pain_tab_ver_2.html ]
e|---------------------------------------------------------|e
B|-------3--3-----0-----3--0-----------5--5-----0-----5--0-|B
G|---0--------0-----0--------------0--------0-----0--------|G
D|-----2--------2-----2--------------4--------4-----4------|D
A|-3-----------------------------5-------------------------|A
D|---------------------------------------------------------|D
                                                   Play 2x
Chorus:
e|------------------------------------------------------------|e
B|------------------------------------------------------------|B
G|------------------------------5-5-5-5-5-5-5/7-7-7-7-7-7-7-7-|G
D|2-2-2-2-2-2-2/4p0-0-0-0-0-0-0p5-5-5-5-5-5-5/7-7-7-7-7-7-7-7-|D
A|2-2-2-2-2-2-2/4p0-0-0-0-0-0-0p3-3-3-3-3-3-3/5-5-5-5-5-5-5-5-|A
D|2-2-2-2-2-2-2/4p0-0-0-0-0-0-0-------------------------------|D
Listen to the song and try to follow with the strumming. Let it ring some in
between strums.                               Play 2x

Intro: (once more)

e|-------------------------------------------------------------------|e
B|-------------------------------------------------------------------|B
G|-------0--0-----------0--0-----------0--0-----------0--0-----------|G
D|-----4------4-------4------4-------4------4-------4------4---------|D
A|---2----------2---2----------2---2----------2---2----------2-------|A
D|-2--------------2--------------0--------------0--------------------|D

e|---------------------------------------------------------|e
B|--------3--3-----0-----3--0-----------5--5-----0-----5--0|B
G|----0--------0-----0--------------0--------0-----0-------|G
D|------2--------2-----2--------------4--------4-----4-----|D
A|--3-----------------------------5------------------------|A
D|---------------------------------------------------------|D
                                                 Play 2x

e|----------------------------------------------------------------|e
B|----------------------------------------------------------------|B
G|------------------------------5-5-5-5-5-5-5/7-7-7-7-7-7-7-7-----|G
D|2-2-2-2-2-2-2/4p0-0-0-0-0-0-0p5-5-5-5-5-5-5/7-7-7-7-7-7-7-7-----|D
A|2-2-2-2-2-2-2/4p0-0-0-0-0-0-0p3-3-3-3-3-3-3/5-5-5-5-5-5-5-5-----|A
D|2-2-2-2-2-2-2/4p0-0-0-0-0-0-0-----------------------------------|D
   Play 2x

Bridge:
e|-----------------------------------------------|e
B|-----------------------------------------------|B
G|-----------------------------------------------|G
D|2-2-2-5-4-2-4-2-4-5-0-0-0-4-2-0-2-0-2-4--------|D
A|2-2-2-5-4-2-4-2-4-5-0-0-0-4-2-0-2-0-2-4--------|A
D|2-2-2-5-4-2-4-2-4-5-0-0-0-4-2-0-2-0-2-4--------|D


That's it, sorry about the solo.
Comments