12 Stones - Running Out Of Pain Chords & Tabs

 

Running Out Of Pain Chords & Tabs

12 Stones Chords & Tabs

Version: 1 Type: Bass Tab 0 ratings
1 star 2 stars 3 stars 4 stars 5 stars
comments

Running Out Of Pain Bass Tab

Band- 12 Stones
Song- Running- Out Of Pain

5 String
Standard Tuning

Intro:

G|----------------------------------------|
D|----------------------------------------|
A|--4----4----2----2----------------------|
E|----------------------5----5----7----7--|
B|----------------------------------------|

Verse 1:

G|------------------------------------------------------------------|
D|-------------------------------------7-------7-------9-------9----|
A|-----4-------4-------2-------2------------------------------------| x2
E|----------------------------------5-5--5--5-5--5--7-7--7--7-7--7--|
B|--2-2--2--2-2--2--0-0--0--0-0--0----------------------------------|

Chorus:

G|-----------------------------------------------------------|
D|---------------------------------7----7--------9----9------|
A|-----4----4-4------2----2-2----------7--75----9----9--7----| x2
E|-------------4-------------2--5-5--5------5-7----7-----97--|
B|--2-2--2-2----2-0-0--0-0----0------------------------------|

Verse 2:
[ Tab from: http://www.guitartabs.cc/tabs/0-9/12_stones/running_out_of_pain_btab.html ]
G|------------------------------------------------------------------|
D|-------------------------------------7-------7-------9-------9----|
A|-----4-------4-------2-------2------------------------------------| x2
E|----------------------------------5-5--5--5-5--5--7-7--7--7-7--7--|
B|--2-2--2--2-2--2--0-0--0--0-0--0----------------------------------|

Chorus:

G|-----------------------------------------------------------|
D|---------------------------------7----7--------9----9------|
A|-----4----4-4------2----2-2----------7--75----9----9--7----| x2
E|-------------4-------------2--5-5--5------5-7----7-----97--|
B|--2-2--2-2----2-0-0--0-0----0------------------------------|

Bridge:

G|-----------------------|
D|-----------------------|
A|-----------------------| x8
E|-----------------------|
B|--0h2-0h2-0h2-5302325--|

Chorus:

G|-----------------------------------------------------------|
D|---------------------------------7----7--------9----9------|
A|-----4----4-4------2----2-2----------7--75----9----9--7----| x2
E|-------------4-------------2--5-5--5------5-7----7-----97--|
B|--2-2--2-2----2-0-0--0-0----0------------------------------|


Ending:

G|----------------------------------------------------------------|
D|---------------------------------7----7--------9----99----------|
A|-----4----4-4------2----2-2----------7--75----9----9--97--------|
E|-------------4-------------2--5-5--5------5-7----7------97------|
B|--2-2--2-2----2-0-0--0-0----0-----------------------------2~~~--|
Comments