12 Stones - My Life Chords & Tabs

 

My Life Chords & Tabs

12 Stones Chords & Tabs

Version: 1 Type: Tab 0 ratings
1 star 2 stars 3 stars 4 stars 5 stars
comments

My Life Tab

Tabbed by Colin Edwards

Drop D Tuning


intro
-----------------------------------------
-----------------------------------------
-----------------------------------------
---7---8-7---7---8-7---7---8-7---7---3-3-
-5---5-----5---5-----5---5-----5---5-3-3-
-------------------------------------3-3-

[ Tab from: http://www.guitartabs.cc/tabs/0-9/12_stones/my_life_tab.html ]
verse                       sometimes
------------                ---------------
------------                ---------------
------------                ---------------
---7---8-7--                ---7---8p7---7-
-5---5------                -5---5-----5---
------------                ---------------

chorus (listen to song for strumming patterns)
--------------------------------------------------------------
--------------------------------------------------------------
--------------------------------------------------------------
-0--3s5-10-8----0--3s5-8-7----0--3s5-10-8--7--3-3s5--------------
-0--3s5-10-8----0--3s5-8-7----0--3s5-10-8--7--3-3s5--------------
-0--3s5-10-8----0--3s5-8-7----0--3s5-10-8--7--3-3s5--------------
Comments