12 Stones - Far Away Chords & Tabs

 

Far Away Chords & Tabs

12 Stones Chords & Tabs

Version: 3 Type: Tab 0 ratings
1 star 2 stars 3 stars 4 stars 5 stars
comments

Far Away Tab

Band: 12 Stones
 Song: Far Away
 Album: Potter's Field
 Tuning: CGCgbe

 Intro
e|--------------------------------------------------------------|
b|--------------------------------------------------------------|
g|--------------------------------------------------------------|
C|-9-9-9--9-7-9---5-5-5--7-0-0--9-9-9--9-7-9---5-5-5--5-5-5-5---|
G|-9-9-9--9-7-9---5-5-5--7-0-0--9-9-9--9-7-9---5-5-5--5-5-5-5---|
C|-9-9-9--9-7-9---5-5-5--7-0-0--9-9-9--9-7-9---5-5-5--5-5-5-5---|

|---------------------------------------------------------|
|---------------------------------------------------------|
|---------------------------------------------------------|
|-9-9-9--9-7-9---5-5-5--7-0-0--9-9-9--9-7-9--77-77--55-55-|
|-9-9-9--9-7-9---5-5-5--7-0-0--9-9-9--9-7-9--77-77--55-55-|
|-9-9-9--9-7-9---5-5-5--7-0-0--9-9-9--9-7-9--77-77--55-55-|

Verse
|-------------------------------------|
|-------------------------------------|
|-------------------------------------|
|-99-99-----99-99-----99-99-----99-99-|
|-99-99-----99-99-----99-99-----99-99-|
|-99-99-----99-99-----99-99-----99-99-|

|----------------------------------------------------------|
|----------------------------------------------------------|
|----------------------------------------------------------|
|-12-12-12-12-9-9--9-9-12-12-12---12-11-11-11---11---------|
|-------------9-9--9-------------------------------12-12-12|
|-------------9-9--9---------------------------------------|

|-------------------------------------|
|-------------------------------------|
|--------------------------------11---|
|-9-9--9-9-12-12-12--12-11-11-11------|
|-9-9--9------------------------------|
|-9-9--9------------------------------|
[ Tab from: http://www.guitartabs.cc/tabs/0-9/12_stones/far_away_tab_ver_3.html ]
Verse 2
|--------------------------------|
|--------------------------------|
|--------------------------------|
|-9-9-9--9-9-0-0-5-5-5--5-5-7-7--|
|-9-9-9--9-9-0-0-5-5-5--5-5-7-7--|
|-9-9-9--9-9-0-0-5-5-5--5-5-7-7--|

Interlude
|----------------------|  
|----------------------| 
|----------------------|  
|9-9--9-5--7h9-10p9-7h9|  
|9-9--9-5--7h9-10p9-7h9|  
|9-9--9-5--7h9-10p9-7h9|4x

|-----------------------------------------------------------|
|-----------------------------------------------------------|
|-----------------------------------------------------------|
|--5-5--5-5-5--7--7-7--7-7-7--9--9-9--9-9-9--4--4-4--4-4-4--|
|--5-5--5-5-5--7--7-7--7-7-7--9--9-9--9-9-9--4--4-4--4-4-4--|
|--5-5--5-5-5--7--7-7--7-7-7--9--9-9--9-9-9--4--4-4--4-4-4--|

Outro
|-----------------------------------------------------|
|-----------------------------------------------------|
|-----------------------------------------------------|
|-7h9-9-9--9--7h9-9-9--9--7h9-9-9--9--7h9-10p9-7h9----|
|-7h9-9-9--9--7h9-9-9--9--7h9-9-9--9--7h9-10p9-7h9----|
|-7h9-9-9--9--7h9-9-9--9--7h9-9-9--9--7h9-10p9-7h9----|
 
Hey guys i think this is the most 99% tab of "far Away" i listened it very
carefully this time....Thanks again 2 "FERRARI" 4 correcting me on my previous
one......i was excited and post it so fast but thanx anyway.I like 2 thank
again the people of our band supporting 4 this tab-
david-1st guitar
Kyle-2nd guitar                "Elaine & MADEL we MISS U SO MUCH"
Rodel-Bass guitar
saeed-Drums (suppose 2 be "MADEL" but she went home in phil.)
and special thanks 4 "Ferrari" and "Tito Ulysses Paul monica" for the vocal of
this song.jenny,venice,grace,justine,sam...veena,jane,maryam,ayaz 4 making this
tab possible 99% atleast. 
God Bless....pEaCe oUt!!!! & rOcK oN
Comments