12 Stones - Far Away Chords & Tabs

 

Far Away Chords & Tabs

12 Stones Chords & Tabs

Version: 2 Type: Tab 0 ratings
1 star 2 stars 3 stars 4 stars 5 stars
comments

Far Away Tab

  Artist: 12 Stones
 Song: Far Away
 Album: Potter's Field
 Tuning: Drop C

 Intro/Chorus
 |-----------------------------------------------------------------------------------------------|
 |-----------------------------------------------------------------------------------------------|
 |-----------------------------------------------------------------------------------------------|
 |-9-9-9--9-7-9-7--5-5-5--5-5-2-2--9-9-9--9-7-9-7--5-5-5--5-5-5-5--------------------------------|
 |-9-9-9--9-7-9-7--5-5-5--5-5-2-2--9-9-9--9-7-9-7--5-5-5--5-5-5-5--------------------------------|
 |-9-9-9--9-7-9-7--5-5-5--5-5-2-2--9-9-9--9-7-9-7--5-5-5--5-5-5-5--------------------------------|

 |-----------------------------------------------------------------------------------------------|
 |-----------------------------------------------------------------------------------------------|
 |-----------------------------------------------------------------------------------------------|
 |-9-9-9--9-7-9-7--2-2-2--2-2-5-5--9-9-9--9-7-9-7--5-5-5--5-5-5-5--------------------------------|
 |-9-9-9--9-7-9-7--2-2-2--2-2-5-5--9-9-9--9-7-9-7--5-5-5--5-5-5-5--------------------------------|
 |-9-9-9--9-7-9-7--2-2-2--2-2-5-5--9-9-9--9-7-9-7--5-5-5--5-5-5-5--------------------------------|

 Verse
 |-----------------------------------------------------------------------------------------------|
 |-----------------------------------------------------------------------------------------------|
 |-----------------------------------------------------------------------------------------------|
 |-9-9--9-------9-9--9------9-9--9------9-9--9---------------------------------------------------|
 |-9-9--9-------9-9--9------9-9--9------9-9--9---------------------------------------------------|
 |-9-9--9-------9-9--9------9-9--9------9-9--9---------------------------------------------------|
[ Tab from: http://www.guitartabs.cc/tabs/0-9/12_stones/far_away_tab_ver_2.html ]
 |-----------------------------------------------------------------------------------------------|
 |-----------------------------------------------------------------------------------------------|
 |------------------------------------------------------------------------------------------11---|
 |-12-12-12-12-9-9--9-9-12-12-12---12-11-11-11---11----------9-9--9-9-12-12-12--12-11-11-11------|
 |-------------9-9--9-------------------------------12-12-12-9-9--9------------------------------|
 |-------------9-9--9----------------------------------------9-9--9------------------------------|

 2nd Verse
 |--------------------------------|
 |--------------------------------|
 |--------------------------------|
 |-9-9-9--9-9-0-0-5-5-5--5-5-7-7--|
 |-9-9-9--9-9-0-0-5-5-5--5-5-7-7--|
 |-9-9-9--9-9-0-0-5-5-5--5-5-7-7--|

 Interlude
 |-----------------------------------------------------------------------------------------------|
 |-----------------------------------------------------------------------------------------------|
 |-----------------------------------------------------------------------------------------------|
 |-5--5-5--5-5-5--7--7-7--7-7-7--9--9-9--9-9-9--4--4-4--4-4-4------------------------------------|
 |-5--5-5--5-5-5--7--7-7--7-7-7--9--9-9--9-9-9--4--4-4--4-4-4------------------------------------|
 |-5--5-5--5-5-5--7--7-7--7-7-7--9--9-9--9-9-9--4--4-4--4-4-4------------------------------------|

 Outro
 |-----------------------------------------------------------------------------------------------|
 |-----------------------------------------------------------------------------------------------|
 |-----------------------------------------------------------------------------------------------|
 |-7h9-9-9--9--7h9-9-9--9--7h9-9-9--9--7h9-10p9-7h9----------------------------------------------|
 |-7h9-9-9--9--7h9-9-9--9--7h9-9-9--9--7h9-10p9-7h9----------------------------------------------|
 |-7h9-9-9--9--7h9-9-9--9--7h9-9-9--9--7h9-10p9-7h9----------------------------------------------|

sounds good to me.
Comments