12 Stones - Crash Chords & Tabs

 

Crash Chords & Tabs

12 Stones Chords & Tabs

Version: 4 Type: Tab 0 ratings
1 star 2 stars 3 stars 4 stars 5 stars
comments

Crash Tab

Intro/verse
e-----------------------------------------------------------
B--1-----1-----1-4-----4-----4-3-----3-----3----------------
G-----------------------------------------------------------repeat-9times
D-----------------------------------------------------------
A----3-3---3-3-----3-3---3-3-----3-3---3-3----2-1--0--1-2-3-
E-----------------------------------------------------------

Chorus
e----------------------------------|     |-------|
B----------------------------------|     |-------|
G----------------------------------|then |-------|
D-5--5-6--6-8-8-8-8-8-2--2-1-1-0/3-|     |-0-x-0-|
A-5--5-6--6-8-8-8-8-8-2--2-1-1-0\3-|     |-0-x-0-|
E-3--3-4--4-6-6-6-6-6-2--2-1-1-0\3-|     |-0-x-0-|
[ Tab from: http://www.guitartabs.cc/tabs/0-9/12_stones/crash_tab_ver_4.html ]
e----------------------------------|    |------------|
B----------------------------------|    |------------|
G----------------------------------|    |------------|
D-5--5-6--6-8-8-8-8-8-2--2-1-1-0\3-|then|-h0h0h0h0h0-|
A-5--5-6--6-8-8-8-8-8-2--2-1-1-0\3-|    |-h0h0h0h0h0-|
E-3--3-4--4-6-6-6-6-6-2--2-1-1-0\3-|    |-h0h0h0h0h0-|

Verse
e-----------------------------------------------------------
B--1-----1-----1-4-----4-----4-3-----3-----3----------------
G-----------------------------------------------------------repeat-7times
D-----------------------------------------------------------
A----3-3---3-3-----3-3---3-3-----3-3---3-3----2-1--0--1-2-3-
E-----------------------------------------------------------

Chorus

Bridge
e-------------|             |----|
B-------------|             |----|
G-------------|             |----|
D-------------|repeat-4 at  |----|
A-0p0--0p0-10-|at end of 4  |-13-|
E-0p0--0p0-10-|             |-13-| 

couldnt find solo sorry

chorus
Comments