12 Stones - Broken Chords & Tabs

 

Broken Chords & Tabs

12 Stones Chords & Tabs

Version: 6 Type: Tab 0 ratings
1 star 2 stars 3 stars 4 stars 5 stars
comments

Broken Tab

Intro/Chorus/Outro
e----------------------------------------------------------------------
B----------------------------------------------------------------------
G----------------------------------------------------------------------
D-*-*-*-*--0-0--*-*-*--0-0--10-10-8-8--*-*-*--8-8-10-10----------------
A-*-*-*-*--0-0--*-*-*--0-0—-10-10-8-8--*-*-*--8-8-10-10----------------
D-*-*-*-*--0-0--*-*-*--0-0— 10-10-8-8--*-*-*--8-8-10-10----------------

Verse
e----------------------------------------------------------------------
B----------------------------------------------------------------------
G----------------------------------------------------------------------
D-0---7---0---------0-----0--------------------------------------------
A---8---8---8-7-8-----8-----8------------------------------------------
D-----------------8-----8-----10---------------------------------------
[ Tab from: http://www.guitartabs.cc/tabs/0-9/12_stones/broken_tab_ver_6.html ]
Bridge
e----------------------------------------------------------------------
B----------------------------------------------------------------------
G------10-10-10-12-12-12-12-12-12-12-12-------10-10-10-9-9-9-7-7-7-7-7-
D-0-0--*--*--*--*--*--*--*--*--*--*--*---0-0--*--*--*--*-*-*-*-*-*-*-*-
A-0-0--8--8--8--10-10-10-10-10-10-10-10--0-0--8--8--8--7-7-7-5-5-5-5-5-
D-0-0------------------------------------0-0---------------------------

Solo
e----------------------------------------------------------------------
B----------------------------------------------------------------------
G----------------------------------------------------------------------
D---------------------------------------------------10-10-8-8-7-7-8-8--
A-----8-8-7-7-8-8-10-10-8-8-7-7-5-5-----8-8-7-7-8-8--------------------
D-0-0-------------------------------8-8--------------------------------

Order played in:
Intro  	2x
Verse  	6x
Chorus 	4x
Verse  	4x
Chorus	4x
Bridge	4x
Solo		4x first two palm muted
Outro	6x 

This is my first tab but I know what’s here is correct.  This tab is missing the
second guitarist’s part in the intro.  I couldn’t figure it out.  If anyone knows
it email it please. Also there are little parts like the ends to the riffs that
are different. Otherwise it’s all correct. There are different ways to play the
verse but I tried to keep the hand movement to a minimum other wise you would be
zooming across the neck.  Well rock on!!
Comments