12 Stones - Broken Chords & Tabs

 

Broken Chords & Tabs

12 Stones Chords & Tabs

Version: 5 Type: Tab 0 ratings
1 star 2 stars 3 stars 4 stars 5 stars
comments

Broken Tab

Artist: 12 Stones
Song: Broken


Intro/Chorus:
gtr.1
e----------------------------------
B----------------------------------
G----------------5--3-3---3-33--5--
Dxxxx0-0xxx0-00-x5--3-3xxx3-33-x5--
Axxxx0-0xxx0-00-x3--1-1xxx1-11-x3--
Dxxxx0-0xxx0-00-x------xxx-----x---
______________________________________________________

gtr.1
e-------------------------------
B-------------------------------
G-------------5--3-3---3-33--5--
D-0-0xxx0-00-x5--3-3xxx3-33-x5--
A-0-0xxx0-00-x3--1-1xxx1-11-x3--
D-0-0xxx0-00-x------xxx-----x---

gtr.2
e-10----------13-10----------13-
B-------------------------------
G-7-----------10-------------10-
D----------------8--------------
A-------------------------------
D-------------------------------
______________________________________________________

Verse:
gtr.1
e--------------------------------
B--------------------------------
G-----2---------------3----------
D-0-3---3-0-3-0-3-0-3---3-0-3-0-3
A--------------------------------
D--------------------------------
Yeah, I know, not this part's not perfect,
but hey, sue me
______________________________________________________

Bridge:
gtr.1
e---------------------------------
B---------------------------------
G-2--2-2/10--10-12------5/10-9---7
D-0--0-0-----------3--3-3---------
A-0--0-0-----------3--3-3---------
D-0--0-0-----------3--3-3---------
______________________________________________________
[ Tab from: http://www.guitartabs.cc/tabs/0-9/12_stones/broken_tab_ver_5.html ]
Interlude:
gtr.1
e-------------------------------------------------
B-------------------------------------------------
G-------------00----------------------55-33-22-33-
D-00-33-22-33----33-22-00----33-22-33-------------
A-------------------------11----------------------
D-------------------------------------------------
  pm.................................
______________________________________________________

gtr.1
e-------------------------------------------------
B-------------------------------------------------
G-------------00----------------------55^55^55^55-
D-00-33-22-33----33-22-00----33-22-33-------------
A-------------------------11----------------------
D-------------------------------------------------
  pm................................. (gradually bend
                                       up until 1/2
                                       step higher)

Order:
Intro
Verse
	alone again, again alone
	patiently waiting by the phone
	hoping that You will call me home
	the pain inside my love denied
	hopes and dreams swallowed by pride
	everything i need it lies in You
Chorus
	'cause i'm broken
	i know i need You now
	'cause deep inside i'm broken
	You see the way i live, i know
	i know Your heart is broken
	when i turn away
	i need to be broken
	take the pain away
Verse
	i question why You chose to die
	when You knew Your truth i would deny
	You look at me
	the tears begin to fall
	and all in all faith is blind
	but i fail time after time
	daily in my sin i take Your life
Chorus
	'cause i'm broken
	i know i need You now
	'cause deep inside i'm broken
	You see the way i live, i know
	i know Your heart is broken
	when i turn away
	i need to be broken
	take the pain away
Bridge
	all the hate deep inside
	slowly covering my eyes
	all these things i hide
	away from You again
	all this fear holding me
	my heart is cold and i believe
	nothing's gonna change
	until i'm broken
Interlude (repeat w/o palm muting)
Chorus
	'cause i'm broken
	i know i need You now
	'cause deep inside i'm broken
	You see the way i live, i know
	i know Your heart is broken
	when i turn away
	i need to be broken
	take the pain away
Chorus
	(random screaming)
Comments