12 Stones - Broken Chords & Tabs

 

Broken Chords & Tabs

12 Stones Chords & Tabs

Version: 4 Type: Tab 0 ratings
1 star 2 stars 3 stars 4 stars 5 stars
comments

Broken Tab

Artist- 12 Stones
Song- Broken
Tabber- Iconoclast
Tuning- Drop D

Chorus
|---------------------------------------------------|
|---------------------------------------------------|
|---------------------------5-5-3-3---------3-3-5-5-|
|-x-x-x-x-0-0-x-x-x-x-0-0-x-5-5-3-3-x-x-x-x-3-3-5-5-|
|-x-x-x-x-0-0-x-x-x-x-0-0-x-3-3-1-1-x-x-x-x-1-1-3-3-|
|-x-x-x-x-0-0-x-x-x-x-0-0-x---------x-x-x-x---------|

Second guitar riff
|----------------------------------------|
|----------------------------------------|
|-7-7-7-7-7-7-7-7-10-7-7-7-7-7-7-7-7-7-7-|
|-x-x-x-x-x-x-x-x-x--x-x-x-x-x-x-x-x-x-x-|
|-5-5-5-5-5-5-5-5-8--5-5-5-5-5-5-5-5-5-5-|
|----------------------------------------|

Verse
|------------------------------------------|
|------------------------------------------|
|-----2------------------------------------|
|---3---3---3-2-3----0-3---------0-3-------|
|-5-------5--------1-----1-1-3-3-----3-----|
|------------------------------------------|

Bridge 
[ Tab from: http://www.guitartabs.cc/tabs/0-9/12_stones/broken_tab_ver_4.html ]
  4x
|------------------------------------------|
|------------------------------------------|
|-----10-10-10-10/12-12-----10\9-9-9-9-7-7-|
|-0-0--x--x--x--x--x--x-3-3--x-x-x-x-x-x-x-|
|-0-0--8--8--8--8/10-10-3-3--8\7-7-7-7-5-5-|
|-0-0-------------------3-3----------------|


 Guitar 1 (2x)
|--------------------|
|--------------------|
|--------3-----------|
|-0-0----3-ring------|
|-0-0----1-----------|
|-0-0----------------|

 Guitar 2- First 2 times palm muted
|----------------------------------------------------|
|----------------------------------------------------|
|----------------------------------------------------|
|----------------------------------------------------|
|-----8-8-7-7-8-8-10-10-8-8-7-7-5-5-----8-8-7-7-8-8--|
|-0-0-------------------------------8-8--------------|

|--------------------|
|--------------------|
|--------------------|
|-10-10-8-8-7-7-8-8--|
|--------------------|
|--------------------|

Ends on
|--------------------|
|--------------------|
|--------------------|
|-0------------------|
|-0-ring-------------|
|-0------------------|

Enjoy.
Comments