12 Stones - Broken Chords & Tabs

 

Broken Chords & Tabs

12 Stones Chords & Tabs

Version: 3 Type: Bass Tab 0 ratings
1 star 2 stars 3 stars 4 stars 5 stars
comments

Broken Bass Tab

Song: Broken
Artist: 12 Stones

Intro/Chorus:2x
G----------------------------------------|
D----------------------------------------|
A----------------------------------------|
E--------------------------8--6---6---8--|
B---3xx3----3xx3-------------------------|

Verse:3x
G------------------------------------------------------------------------|
D------------------------------------------------------------------------|
A------------------------------------------------------------------------|
E-------------10----8---6---6-----6---8---10---10-----10---8------6---6--|
B---3--3-----------------------------------------------------------------|

Play this really fast 1 and second time         play this third time fast
G-------------------------6--8----------------|---------------------------------4-6-------|
D-------------------6--8----------------------|----------------------------6-8------------|
A-------------6--8----------------------------|-----------------------6-8-----------------|
E------8--10----------------------------------|------------------6-8----------------------|
B----------------------------------------------|----8--10---6-8---------------------------|

Prechorus:1x                                                                                  play fast
G------------------------------------------------------------------------|-------16--15--------------------|
D------------------------------------------------------------------------|-----------------12-13-12--------|
A------------------------------------------------------------------------|-----------------------------13--|
E-------------10--8--6---6-----6--8--10-10-----10--8---6---6-----|-----------------------------------------|
B---3xx3----------------------------------------------------------------|--3-3-----------------------------|

[ Tab from: http://www.guitartabs.cc/tabs/0-9/12_stones/broken_btab_ver_3.html ]
Intro/Chorus:2x
G---------------------------------------|
D---------------------------------------|
A---------------------------------------|
E--------------------------8-6---6---8--|
B---3xx3----3xx3------------------------|

Interlude:2x
G-----------------------------|
D-----------------------------|
A-----------------------------|
E-----------------------------|
B----2-2--6---------2-2--6-5--|


Guitar Solo:2x
G-----------------|
D-----------------|
A-----------------|
E------------6~~--|
B--3--3-----------|

Guitar solo with Bass:1x
G---------------------------------------------------------------------------------------------------|
D------------------------------------------------------------------------------------10--10--8-7-8--|
A----------8-8---7-7--8-----10---10---8--8---7-7--55-------8-8--7-7--8-8----------------------------|
E---------------------------------------------------------------------------------------------------|
B----3-3----------------------------------------------------3---------------------------------------|

G--------------------------------------------------------------------------------------------------|
D------------------------------------------------------------------------------10--8-7-8-10-8-7-8--|
A---------8-8---7-7--8-----10---10---8--8---7-7--55------8-8--7-7--8-------------------------------|
E--------------------------------------------------------------------------------------------------|
B---3-3----------------------------------------------------3-3-------------------------------------|

B------3-------------------------------------------------------------------------------|
B---3xx3----3xx3-----------------------------------------------------------------------|

End
G------------------------------|
D------------------------------|
A------------------------------|
E------------------------------|

Intro/Chorus:2x
G----------------------------------------|
D----------------------------------------|
A----------------------------------------|
E--------------------------8--6---6---8--|
Comments