12 Stones - Bitter Chords & Tabs

 

Bitter Chords & Tabs

12 Stones Chords & Tabs

Version: 3 Type: Tab 0 ratings
1 star 2 stars 3 stars 4 stars 5 stars
comments

Bitter Tab

   
Artist:12 Stones
Song:Bitter

Hey this song is PIMPASS have fun. Pleas Rate
Tunning drop D
[clean] intro part (A)
E-------------------------------|------------------------------------|
B-------------------------------|------------------------------------|
G-------------------------------|------------------------------------|
D---2-------0------4----2-------|---2---------0----------4----------5|
A---0-------0------0----0-------|---0---------0----------0----------0|
D---0-------0------0----0-------|---0---------0----------0----------0|

ditortion intro part (B)

E----------------------------------------|---------------------------------|
B----------------------------------------|---------------------------------|
D-----------------------------5----------|-----------------------------9---|
G--0--0--0--2--2--0--0--0--0--x----------|--0--0--0--2--2--0--0--0--0--x---|
A--0--0--0--2--2--0--0--0--0--3----------|--0--0--0--2--2--0--0--0--0--7---|
D--0--0--0--2--2--0--0--0--0-------------|--0--0--0--2--2--0--0--0--0------|

clean verse past(A) x2
E--------------------------------------------------------------------------|
B--------------------------------------------------------------------------|
G--------------------------------------------------------------------------|
D-----------9-------7------------4------------4---------4------------------|
A--------7-------5------------2-------------2----------2-------------------|
D-----7-------5------------2--------------2----------2---------------------|
[ Tab from: http://www.guitartabs.cc/tabs/0-9/12_stones/bitter_tab_ver_3.html ]
E--------------------------------------------------------------------------|
B--------------------------------------------------------------------------|
G--------------------------------------------------------------------------|
D-----------9------------7------------5------------5------------5----------|
A--------7------------5-------------2-----------2------------2-------------|
D-----7------------5--------------2-----------2-----------2----------------|
vese riff part(B) x2
E--------------------------------------------------------------------------|
B--------------------------------------------------------------------------|
G--------------------------------------------------------------------------|
D----------9-------------7-----------4-----4----4----4----4----------------|
A-------7-------------5------------2-----2----2----2----2---2--------------|
D----7-------------5------------2------------------------------------------|


E--------------------------------------------------------------------------|
B--------------------------------------------------------------------------|
G--------------------------------------------------------------------------|
D----------9------------7------------5-----5----5----5----5----------------|
A-------7-------------5------------2-----2----2----2----2----2-------------|
D----7--------------5-----------2------------------------------------------|

Chorus Distortion x2

E--------------------------------------------------------------------------|
B--------------------------------------------------------------------------|
G--------------------------------------------------------------------------|
D- x--x----2----5----0----7----x--x---2-----5---0-----2-2-2-2\3\5-5--------|
A--x--x----2----5----0----7----x--x---2-----5---0-----x-x-x-x\x\x-x--------|
D--x--x----2----5----0----7----x--x---2-----5---0-----4-4-4-4\5\7-7--------|

E----------------------------------------|---------------------------------|
B----------------------------------------|---------------------------------|
G-----------------------------5----------|------------------------------9--|
D--0--0--0--2--2--0--0--0--0--x----------|--0--0--0--2--2--0--0--0--0---x--|
A--0--0--0--2--2--0--0--0--0--3----------|--0--0--0--2--2--0--0--0--0---7--|
D--0--0--0--2--2--0--0--0--0-------------|--0--0--0--2--2--0--0--0--0------|
intro part (B)
intro part (A)
verse riff (A)x2
verse riff (B)x2
chorus 
E--------------------------------------------------------------------------|
B--------------------------------------------------------------------------|
G---4-----------5-----------------7--------------5-------------------------|
D---x-----------x-----------------x--------------x-------------------------|
A---2-----------3-----------------5--------------3-------------------------|
D--------------------------------------------------------------------------|
figure out strumming urself

chorus

x= dead note

sry i didnt get around the solo but i got most of the song if u have any problems
with it email me at Guitarkid13@sbcglobal.net
Comments