12 Stones - Bitter Chords & Tabs

 

Bitter Chords & Tabs

12 Stones Chords & Tabs

Version: 1 Type: Tab 0 ratings
1 star 2 stars 3 stars 4 stars 5 stars
comments

Bitter Tab

INTRO
E------------------------------------------------------------------------------|
B------------------------------------------------------------------------------|
G------------------------------------------------------------------------------|
D4--2--6--4--4--2--6--7-------------------------------------------------------|
A2--0--4--0--2--0--4--0-------------------------------------------------------|
D2--0--4--0--2--0--4--0-------------------------------------------------------|
PRE-VERSE
E---------------------------------------|
B---------------------------------------|
G---------------------------------------|
D--2-2-0-0-4-4--4-----2-2-0-0-4-4----7--|X2
A--2-2-0-0-4-4--------2-2-0-0-4-4-------|
D--2-2-0-0-4-4--------2-2-0-0-4-4-------|
VERSE
E------------------------------------------------------|
B------------------------------------------------------|
G------------------------------------------------------|X2
D------4-----2-----6-----4------4-----2-----6----7-7---|
A----2-----0-----4-----0------2-----0-----4----0--0-0--|
D--2-----0-----4-----0------2-----0-----4----0---------|
CHORUS
E--------------------------------------------------------------------------------------|
B--------------------------------------------------------------------------------------|
G--------------------------------------------------------------------------------------|X4
D--4-4-4--7-7-7-7--2-2-2--X--X--X--X---------------------------------------------------|
A--4-4-4--7-7-7-7--2-2-2--X--X--X--X---------------------------------------------------|
D--4-4-4--7-7-7-7--2-2-2--X--X--X--X---------------------------------------------------|
OUTRO SAME AS INTRO

ORDER
INTRO
PREVERSE
VERSE
CHORUS
PREVERSE
VERSE
CHORUS
PREVERSE
OUTRO
[ Tab from: http://www.guitartabs.cc/tabs/0-9/12_stones/bitter_tab.html ]
Comments